ISO-10303-21;
HEADER;
/****************************************************************
 * Generated by software with PDE/Lib inside                    *
 * PDE/Lib Version 3.2.4, created Tue Dec 05, 2000 at 18:43:23  *
 * International Technegroup Inc. (www.iti-oh.com)              *
 ****************************************************************/
FILE_DESCRIPTION((''),'2;1');
FILE_NAME('S:\\L6TWM.stp','2015-07-23T15:17:58',('pfALLON'),(''),'Autodesk Inventor (tm) 5.3','Autodesk Inventor (tm) 5.3','');
FILE_SCHEMA(('CONFIG_CONTROL_DESIGN'));
ENDSEC;
DATA;
#5=APPLICATION_CONTEXT('configuration controlled 3D designs of mechanical parts and assemblies');
#6=APPLICATION_PROTOCOL_DEFINITION('International Standard','config_control_design',1995,#5);
#7=MECHANICAL_CONTEXT('None',#5,'mechanical');
#8=PRODUCT('L6TWMSL','L6TWMSL','None',(#7));
#9=PRODUCT_RELATED_PRODUCT_CATEGORY('detail',$,(#8));
#10=PRODUCT_CATEGORY('part',$);
#11=PRODUCT_CATEGORY_RELATIONSHIP('None','None',#10,#9);
#12=PERSON('PERSON1','None','None',$,$,$);
#13=ORGANIZATION('','None','None');
#14=PERSON_AND_ORGANIZATION(#12,#13);
#15=PERSON_AND_ORGANIZATION_ROLE('design_owner');
#16=CC_DESIGN_PERSON_AND_ORGANIZATION_ASSIGNMENT(#14,#15,(#8));
#17=PRODUCT_DEFINITION_FORMATION_WITH_SPECIFIED_SOURCE('None','None',#8,.NOT_KNOWN.);
#18=PERSON('PERSON2','None','None',$,$,$);
#19=ORGANIZATION('','None','None');
#20=PERSON_AND_ORGANIZATION(#18,#19);
#21=PERSON_AND_ORGANIZATION_ROLE('creator');
#22=CC_DESIGN_PERSON_AND_ORGANIZATION_ASSIGNMENT(#20,#21,(#17));
#23=PERSON('PERSON3','None','None',$,$,$);
#24=ORGANIZATION('','None','None');
#25=PERSON_AND_ORGANIZATION(#23,#24);
#26=PERSON_AND_ORGANIZATION_ROLE('part_supplier');
#27=CC_DESIGN_PERSON_AND_ORGANIZATION_ASSIGNMENT(#25,#26,(#17));
#28=APPROVAL_STATUS('approved');
#29=APPROVAL(#28,'None');
#30=PERSON('PERSON4','None','None',$,$,$);
#31=ORGANIZATION('','None','None');
#32=PERSON_AND_ORGANIZATION(#30,#31);
#33=APPROVAL_ROLE('None');
#34=APPROVAL_PERSON_ORGANIZATION(#32,#29,#33);
#35=CALENDAR_DATE(2015,23,7);
#36=COORDINATED_UNIVERSAL_TIME_OFFSET(0,0,.AHEAD.);
#37=LOCAL_TIME(15,17,58.0,#36);
#38=DATE_AND_TIME(#35,#37);
#39=APPROVAL_DATE_TIME(#38,#29);
#40=CC_DESIGN_APPROVAL(#29,(#17));
#41=SECURITY_CLASSIFICATION_LEVEL('unclassified');
#42=SECURITY_CLASSIFICATION('None','None',#41);
#43=CC_DESIGN_SECURITY_CLASSIFICATION(#42,(#17));
#44=APPROVAL_STATUS('approved');
#45=APPROVAL(#44,'None');
#46=PERSON('PERSON5','None','None',$,$,$);
#47=ORGANIZATION('','None','None');
#48=PERSON_AND_ORGANIZATION(#46,#47);
#49=APPROVAL_ROLE('None');
#50=APPROVAL_PERSON_ORGANIZATION(#48,#45,#49);
#51=CALENDAR_DATE(2015,23,7);
#52=COORDINATED_UNIVERSAL_TIME_OFFSET(0,0,.AHEAD.);
#53=LOCAL_TIME(15,17,58.0,#52);
#54=DATE_AND_TIME(#51,#53);
#55=APPROVAL_DATE_TIME(#54,#45);
#56=CC_DESIGN_APPROVAL(#45,(#42));
#57=PERSON('PERSON6','None','None',$,$,$);
#58=ORGANIZATION('','None','None');
#59=PERSON_AND_ORGANIZATION(#57,#58);
#60=PERSON_AND_ORGANIZATION_ROLE('classification_officer');
#61=CC_DESIGN_PERSON_AND_ORGANIZATION_ASSIGNMENT(#59,#60,(#42));
#62=DATE_TIME_ROLE('classification_date');
#63=CALENDAR_DATE(2015,23,7);
#64=COORDINATED_UNIVERSAL_TIME_OFFSET(0,0,.AHEAD.);
#65=LOCAL_TIME(15,17,58.0,#64);
#66=DATE_AND_TIME(#63,#65);
#67=CC_DESIGN_DATE_AND_TIME_ASSIGNMENT(#66,#62,(#42));
#68=DESIGN_CONTEXT('part definition',#5,'design');
#69=PRODUCT_DEFINITION('None','None',#17,#68);
#70=PERSON('PERSON7','None','None',$,$,$);
#71=ORGANIZATION('','None','None');
#72=PERSON_AND_ORGANIZATION(#70,#71);
#73=PERSON_AND_ORGANIZATION_ROLE('creator');
#74=CC_DESIGN_PERSON_AND_ORGANIZATION_ASSIGNMENT(#72,#73,(#69));
#75=DATE_TIME_ROLE('creation_date');
#76=CALENDAR_DATE(2015,23,7);
#77=COORDINATED_UNIVERSAL_TIME_OFFSET(0,0,.AHEAD.);
#78=LOCAL_TIME(15,17,58.0,#77);
#79=DATE_AND_TIME(#76,#78);
#80=CC_DESIGN_DATE_AND_TIME_ASSIGNMENT(#79,#75,(#69));
#81=APPROVAL_STATUS('approved');
#82=APPROVAL(#81,'None');
#83=PERSON('PERSON8','None','None',$,$,$);
#84=ORGANIZATION('','None','None');
#85=PERSON_AND_ORGANIZATION(#83,#84);
#86=APPROVAL_ROLE('None');
#87=APPROVAL_PERSON_ORGANIZATION(#85,#82,#86);
#88=CALENDAR_DATE(2015,23,7);
#89=COORDINATED_UNIVERSAL_TIME_OFFSET(0,0,.AHEAD.);
#90=LOCAL_TIME(15,17,58.0,#89);
#91=DATE_AND_TIME(#88,#90);
#92=APPROVAL_DATE_TIME(#91,#82);
#93=CC_DESIGN_APPROVAL(#82,(#69));
#99=(NAMED_UNIT(*)PLANE_ANGLE_UNIT()SI_UNIT($,.RADIAN.));
#100=DIMENSIONAL_EXPONENTS(0.0,0.0,0.0,0.0,0.0,0.0,0.0);
#101=PLANE_ANGLE_MEASURE_WITH_UNIT(PLANE_ANGLE_MEASURE(0.017453292500000),#99);
#105=(CONVERSION_BASED_UNIT('DEGREE',#101)NAMED_UNIT(#100)PLANE_ANGLE_UNIT());
#109=(NAMED_UNIT(*)SI_UNIT($,.STERADIAN.)SOLID_ANGLE_UNIT());
#113=(LENGTH_UNIT()NAMED_UNIT(*)SI_UNIT(.CENTI.,.METRE.));
#114=DIMENSIONAL_EXPONENTS(1.0,0.0,0.0,0.0,0.0,0.0,0.0);
#115=LENGTH_MEASURE_WITH_UNIT(LENGTH_MEASURE(2.540000000000000),#113);
#119=(CONVERSION_BASED_UNIT('INCH',#115)LENGTH_UNIT()NAMED_UNIT(#114));
#121=UNCERTAINTY_MEASURE_WITH_UNIT(LENGTH_MEASURE(0.000001000000000),#119,'DISTANCE_ACCURACY_VALUE','');
#123=(GEOMETRIC_REPRESENTATION_CONTEXT(3)GLOBAL_UNCERTAINTY_ASSIGNED_CONTEXT((#121))GLOBAL_UNIT_ASSIGNED_CONTEXT((#105,#109,#119))REPRESENTATION_CONTEXT('None','None'));
#124=AXIS2_PLACEMENT_3D('',#125,#126,#127);
#125=CARTESIAN_POINT('',(0.0,0.0,0.0));
#126=DIRECTION('',(0.0,0.0,1.0));
#127=DIRECTION('',(1.0,0.0,0.0));
#128=SHAPE_REPRESENTATION('',(#124),#123);
#129=PRODUCT_DEFINITION_SHAPE('','',#69);
#130=SHAPE_DEFINITION_REPRESENTATION(#129,#128);
#131=CARTESIAN_POINT('',(-0.329203725174297,0.072559190047884,0.0));
#132=DIRECTION('',(0.0,0.0,1.0));
#133=DIRECTION('',(-1.0,0.0,0.0));
#134=AXIS2_PLACEMENT_3D('',#131,#132,#133);
#135=CYLINDRICAL_SURFACE('',#134,0.135850000000000);
#136=CARTESIAN_POINT('',(-0.465053725174297,0.072559190047884,0.859300000000000));
#137=VERTEX_POINT('',#136);
#138=CARTESIAN_POINT('',(-0.465053725174297,0.072559190047884,0.0));
#139=VERTEX_POINT('',#138);
#140=CARTESIAN_POINT('',(-0.465053725174297,0.072559190047884,0.859300000000000));
#141=DIRECTION('',(0.0,0.0,-1.0));
#142=VECTOR('',#141,0.859300000000000);
#143=LINE('',#140,#142);
#144=EDGE_CURVE('',#137,#139,#143,.T.);
#145=ORIENTED_EDGE('',*,*,#144,.F.);
#146=CARTESIAN_POINT('',(-0.193353725174297,0.072559190047884,0.859300000000000));
#147=VERTEX_POINT('',#146);
#148=CARTESIAN_POINT('',(-0.329203725174297,0.072559190047884,0.859300000000000));
#149=DIRECTION('',(0.0,0.0,-1.0));
#150=DIRECTION('',(-1.0,0.0,0.0));
#151=AXIS2_PLACEMENT_3D('',#148,#149,#150);
#152=CIRCLE('',#151,0.135850000000000);
#153=EDGE_CURVE('',#147,#137,#152,.T.);
#154=ORIENTED_EDGE('',*,*,#153,.F.);
#155=CARTESIAN_POINT('',(-0.193353725174297,0.072559190047884,0.0));
#156=VERTEX_POINT('',#155);
#157=CARTESIAN_POINT('',(-0.193353725174297,0.072559190047884,0.0));
#158=DIRECTION('',(0.0,0.0,1.0));
#159=VECTOR('',#158,0.859300000000000);
#160=LINE('',#157,#159);
#161=EDGE_CURVE('',#156,#147,#160,.T.);
#162=ORIENTED_EDGE('',*,*,#161,.F.);
#163=CARTESIAN_POINT('',(-0.329203725174297,0.072559190047884,0.0));
#164=DIRECTION('',(0.0,0.0,1.0));
#165=DIRECTION('',(-1.0,0.0,0.0));
#166=AXIS2_PLACEMENT_3D('',#163,#164,#165);
#167=CIRCLE('',#166,0.135850000000000);
#168=EDGE_CURVE('',#139,#156,#167,.T.);
#169=ORIENTED_EDGE('',*,*,#168,.F.);
#170=EDGE_LOOP('',(#145,#154,#162,#169));
#171=FACE_OUTER_BOUND('',#170,.T.);
#172=ADVANCED_FACE('',(#171),#135,.F.);
#173=CARTESIAN_POINT('',(-0.329203725174297,0.072559190047884,0.030000000000000));
#174=DIRECTION('',(0.0,0.0,-1.0));
#175=DIRECTION('',(-1.0,0.0,0.0));
#176=AXIS2_PLACEMENT_3D('',#173,#174,#175);
#177=TOROIDAL_SURFACE('',#176,0.205700000000000,0.030000000000000);
#178=CARTESIAN_POINT('',(-0.564903725174298,0.072559190047884,0.030000000000000));
#179=VERTEX_POINT('',#178);
#180=CARTESIAN_POINT('',(-0.534903725174298,0.072559190047884,0.0));
#181=VERTEX_POINT('',#180);
#182=CARTESIAN_POINT('',(-0.534903725174298,0.072559190047884,0.030000000000000));
#183=DIRECTION('',(0.0,-1.0,0.0));
#184=DIRECTION('',(-1.0,0.0,0.0));
#185=AXIS2_PLACEMENT_3D('',#182,#183,#184);
#186=CIRCLE('',#185,0.030000000000000);
#187=EDGE_CURVE('',#179,#181,#186,.T.);
#188=ORIENTED_EDGE('',*,*,#187,.F.);
#189=CARTESIAN_POINT('',(-0.093503725174297,0.072559190047884,0.030000000000000));
#190=VERTEX_POINT('',#189);
#191=CARTESIAN_POINT('',(-0.329203725174297,0.072559190047884,0.030000000000000));
#192=DIRECTION('',(0.0,0.0,-1.0));
#193=DIRECTION('',(-1.0,0.0,0.0));
#194=AXIS2_PLACEMENT_3D('',#191,#192,#193);
#195=CIRCLE('',#194,0.235700000000000);
#196=EDGE_CURVE('',#179,#190,#195,.T.);
#197=ORIENTED_EDGE('',*,*,#196,.T.);
#198=CARTESIAN_POINT('',(-0.123503725174297,0.072559190047884,0.0));
#199=VERTEX_POINT('',#198);
#200=CARTESIAN_POINT('',(-0.123503725174297,0.072559190047884,0.030000000000000));
#201=DIRECTION('',(0.0,-1.0,0.0));
#202=DIRECTION('',(1.0,0.0,0.0));
#203=AXIS2_PLACEMENT_3D('',#200,#201,#202);
#204=CIRCLE('',#203,0.030000000000000);
#205=EDGE_CURVE('',#199,#190,#204,.T.);
#206=ORIENTED_EDGE('',*,*,#205,.F.);
#207=CARTESIAN_POINT('',(-0.329203725174297,0.072559190047884,0.0));
#208=DIRECTION('',(0.0,0.0,1.0));
#209=DIRECTION('',(-1.0,0.0,0.0));
#210=AXIS2_PLACEMENT_3D('',#207,#208,#209);
#211=CIRCLE('',#210,0.205700000000000);
#212=EDGE_CURVE('',#199,#181,#211,.T.);
#213=ORIENTED_EDGE('',*,*,#212,.T.);
#214=EDGE_LOOP('',(#188,#197,#206,#213));
#215=FACE_OUTER_BOUND('',#214,.T.);
#216=ADVANCED_FACE('',(#215),#177,.T.);
#217=CARTESIAN_POINT('',(-0.329203725174297,0.072559190047884,0.0));
#218=DIRECTION('',(0.0,0.0,1.0));
#219=DIRECTION('',(-1.0,0.0,0.0));
#220=AXIS2_PLACEMENT_3D('',#217,#218,#219);
#221=CYLINDRICAL_SURFACE('',#220,0.235700000000000);
#222=CARTESIAN_POINT('',(-0.564903725174298,0.072559190047884,0.829300000000000));
#223=VERTEX_POINT('',#222);
#224=CARTESIAN_POINT('',(-0.564903725174298,0.072559190047884,0.030000000000000));
#225=DIRECTION('',(0.0,0.0,1.0));
#226=VECTOR('',#225,0.799300000000000);
#227=LINE('',#224,#226);
#228=EDGE_CURVE('',#179,#223,#227,.T.);
#229=ORIENTED_EDGE('',*,*,#228,.F.);
#230=CARTESIAN_POINT('',(-0.329203725174297,0.072559190047884,0.030000000000000));
#231=DIRECTION('',(0.0,0.0,-1.0));
#232=DIRECTION('',(-1.0,0.0,0.0));
#233=AXIS2_PLACEMENT_3D('',#230,#231,#232);
#234=CIRCLE('',#233,0.235700000000000);
#235=EDGE_CURVE('',#190,#179,#234,.T.);
#236=ORIENTED_EDGE('',*,*,#235,.F.);
#237=CARTESIAN_POINT('',(-0.093503725174297,0.072559190047884,0.829300000000000));
#238=VERTEX_POINT('',#237);
#239=CARTESIAN_POINT('',(-0.093503725174297,0.072559190047884,0.829300000000000));
#240=DIRECTION('',(0.0,0.0,-1.0));
#241=VECTOR('',#240,0.799300000000000);
#242=LINE('',#239,#241);
#243=EDGE_CURVE('',#238,#190,#242,.T.);
#244=ORIENTED_EDGE('',*,*,#243,.F.);
#245=CARTESIAN_POINT('',(-0.329203725174297,0.072559190047884,0.829300000000000));
#246=DIRECTION('',(0.0,0.0,1.0));
#247=DIRECTION('',(-1.0,0.0,0.0));
#248=AXIS2_PLACEMENT_3D('',#245,#246,#247);
#249=CIRCLE('',#248,0.235700000000000);
#250=EDGE_CURVE('',#223,#238,#249,.T.);
#251=ORIENTED_EDGE('',*,*,#250,.F.);
#252=EDGE_LOOP('',(#229,#236,#244,#251));
#253=FACE_OUTER_BOUND('',#252,.T.);
#254=ADVANCED_FACE('',(#253),#221,.T.);
#255=CARTESIAN_POINT('',(-0.329203725174297,0.072559190047884,0.829300000000000));
#256=DIRECTION('',(0.0,0.0,-1.0));
#257=DIRECTION('',(-1.0,0.0,0.0));
#258=AXIS2_PLACEMENT_3D('',#255,#256,#257);
#259=TOROIDAL_SURFACE('',#258,0.205700000000000,0.030000000000000);
#260=CARTESIAN_POINT('',(-0.534903725174298,0.072559190047884,0.859300000000000));
#261=VERTEX_POINT('',#260);
#262=CARTESIAN_POINT('',(-0.534903725174298,0.072559190047884,0.829300000000000));
#263=DIRECTION('',(0.0,-1.0,0.0));
#264=DIRECTION('',(-1.0,0.0,0.0));
#265=AXIS2_PLACEMENT_3D('',#262,#263,#264);
#266=CIRCLE('',#265,0.030000000000000);
#267=EDGE_CURVE('',#261,#223,#266,.T.);
#268=ORIENTED_EDGE('',*,*,#267,.F.);
#269=CARTESIAN_POINT('',(-0.123503725174297,0.072559190047884,0.859300000000000));
#270=VERTEX_POINT('',#269);
#271=CARTESIAN_POINT('',(-0.329203725174297,0.072559190047884,0.859300000000000));
#272=DIRECTION('',(0.0,0.0,-1.0));
#273=DIRECTION('',(-1.0,0.0,0.0));
#274=AXIS2_PLACEMENT_3D('',#271,#272,#273);
#275=CIRCLE('',#274,0.205700000000000);
#276=EDGE_CURVE('',#261,#270,#275,.T.);
#277=ORIENTED_EDGE('',*,*,#276,.T.);
#278=CARTESIAN_POINT('',(-0.123503725174297,0.072559190047884,0.829300000000000));
#279=DIRECTION('',(0.0,-1.0,0.0));
#280=DIRECTION('',(1.0,0.0,0.0));
#281=AXIS2_PLACEMENT_3D('',#278,#279,#280);
#282=CIRCLE('',#281,0.030000000000000);
#283=EDGE_CURVE('',#238,#270,#282,.T.);
#284=ORIENTED_EDGE('',*,*,#283,.F.);
#285=CARTESIAN_POINT('',(-0.329203725174297,0.072559190047884,0.829300000000000));
#286=DIRECTION('',(0.0,0.0,1.0));
#287=DIRECTION('',(-1.0,0.0,0.0));
#288=AXIS2_PLACEMENT_3D('',#285,#286,#287);
#289=CIRCLE('',#288,0.235700000000000);
#290=EDGE_CURVE('',#238,#223,#289,.T.);
#291=ORIENTED_EDGE('',*,*,#290,.T.);
#292=EDGE_LOOP('',(#268,#277,#284,#291));
#293=FACE_OUTER_BOUND('',#292,.T.);
#294=ADVANCED_FACE('',(#293),#259,.T.);
#295=CARTESIAN_POINT('',(-0.329203725174297,0.072559190047884,0.829300000000000));
#296=DIRECTION('',(0.0,0.0,-1.0));
#297=DIRECTION('',(-1.0,0.0,0.0));
#298=AXIS2_PLACEMENT_3D('',#295,#296,#297);
#299=TOROIDAL_SURFACE('',#298,0.205700000000000,0.030000000000000);
#300=ORIENTED_EDGE('',*,*,#267,.T.);
#301=ORIENTED_EDGE('',*,*,#250,.T.);
#302=ORIENTED_EDGE('',*,*,#283,.T.);
#303=CARTESIAN_POINT('',(-0.329203725174297,0.072559190047884,0.859300000000000));
#304=DIRECTION('',(0.0,0.0,-1.0));
#305=DIRECTION('',(-1.0,0.0,0.0));
#306=AXIS2_PLACEMENT_3D('',#303,#304,#305);
#307=CIRCLE('',#306,0.205700000000000);
#308=EDGE_CURVE('',#270,#261,#307,.T.);
#309=ORIENTED_EDGE('',*,*,#308,.T.);
#310=EDGE_LOOP('',(#300,#301,#302,#309));
#311=FACE_OUTER_BOUND('',#310,.T.);
#312=ADVANCED_FACE('',(#311),#299,.T.);
#313=CARTESIAN_POINT('',(-0.329203725174297,0.072559190047884,0.0));
#314=DIRECTION('',(0.0,0.0,1.0));
#315=DIRECTION('',(-1.0,0.0,0.0));
#316=AXIS2_PLACEMENT_3D('',#313,#314,#315);
#317=CYLINDRICAL_SURFACE('',#316,0.235700000000000);
#318=ORIENTED_EDGE('',*,*,#228,.T.);
#319=ORIENTED_EDGE('',*,*,#290,.F.);
#320=ORIENTED_EDGE('',*,*,#243,.T.);
#321=ORIENTED_EDGE('',*,*,#196,.F.);
#322=EDGE_LOOP('',(#318,#319,#320,#321));
#323=FACE_OUTER_BOUND('',#322,.T.);
#324=ADVANCED_FACE('',(#323),#317,.T.);
#325=CARTESIAN_POINT('',(-0.329203725174297,0.072559190047884,0.859300000000000));
#326=DIRECTION('',(0.0,0.0,-1.0));
#327=DIRECTION('',(-1.0,0.0,0.0));
#328=AXIS2_PLACEMENT_3D('',#325,#326,#327);
#329=PLANE('',#328);
#330=ORIENTED_EDGE('',*,*,#308,.F.);
#331=ORIENTED_EDGE('',*,*,#276,.F.);
#332=EDGE_LOOP('',(#330,#331));
#333=FACE_OUTER_BOUND('',#332,.T.);
#334=ORIENTED_EDGE('',*,*,#153,.T.);
#335=CARTESIAN_POINT('',(-0.329203725174297,0.072559190047884,0.859300000000000));
#336=DIRECTION('',(0.0,0.0,-1.0));
#337=DIRECTION('',(-1.0,0.0,0.0));
#338=AXIS2_PLACEMENT_3D('',#335,#336,#337);
#339=CIRCLE('',#338,0.135850000000000);
#340=EDGE_CURVE('',#137,#147,#339,.T.);
#341=ORIENTED_EDGE('',*,*,#340,.T.);
#342=EDGE_LOOP('',(#334,#341));
#343=FACE_BOUND('',#342,.T.);
#344=ADVANCED_FACE('',(#333,#343),#329,.F.);
#345=CARTESIAN_POINT('',(-0.329203725174297,0.072559190047884,0.030000000000000));
#346=DIRECTION('',(0.0,0.0,-1.0));
#347=DIRECTION('',(-1.0,0.0,0.0));
#348=AXIS2_PLACEMENT_3D('',#345,#346,#347);
#349=TOROIDAL_SURFACE('',#348,0.205700000000000,0.030000000000000);
#350=ORIENTED_EDGE('',*,*,#187,.T.);
#351=CARTESIAN_POINT('',(-0.329203725174297,0.072559190047884,0.0));
#352=DIRECTION('',(0.0,0.0,1.0));
#353=DIRECTION('',(-1.0,0.0,0.0));
#354=AXIS2_PLACEMENT_3D('',#351,#352,#353);
#355=CIRCLE('',#354,0.205700000000000);
#356=EDGE_CURVE('',#181,#199,#355,.T.);
#357=ORIENTED_EDGE('',*,*,#356,.T.);
#358=ORIENTED_EDGE('',*,*,#205,.T.);
#359=ORIENTED_EDGE('',*,*,#235,.T.);
#360=EDGE_LOOP('',(#350,#357,#358,#359));
#361=FACE_OUTER_BOUND('',#360,.T.);
#362=ADVANCED_FACE('',(#361),#349,.T.);
#363=CARTESIAN_POINT('',(-0.329203725174297,0.072559190047884,0.0));
#364=DIRECTION('',(0.0,0.0,-1.0));
#365=DIRECTION('',(-1.0,0.0,0.0));
#366=AXIS2_PLACEMENT_3D('',#363,#364,#365);
#367=PLANE('',#366);
#368=ORIENTED_EDGE('',*,*,#212,.F.);
#369=ORIENTED_EDGE('',*,*,#356,.F.);
#370=EDGE_LOOP('',(#368,#369));
#371=FACE_OUTER_BOUND('',#370,.T.);
#372=CARTESIAN_POINT('',(-0.329203725174297,0.072559190047884,0.0));
#373=DIRECTION('',(0.0,0.0,1.0));
#374=DIRECTION('',(-1.0,0.0,0.0));
#375=AXIS2_PLACEMENT_3D('',#372,#373,#374);
#376=CIRCLE('',#375,0.135850000000000);
#377=EDGE_CURVE('',#156,#139,#376,.T.);
#378=ORIENTED_EDGE('',*,*,#377,.T.);
#379=ORIENTED_EDGE('',*,*,#168,.T.);
#380=EDGE_LOOP('',(#378,#379));
#381=FACE_BOUND('',#380,.T.);
#382=ADVANCED_FACE('',(#371,#381),#367,.T.);
#383=CARTESIAN_POINT('',(-0.329203725174297,0.072559190047884,0.0));
#384=DIRECTION('',(0.0,0.0,1.0));
#385=DIRECTION('',(-1.0,0.0,0.0));
#386=AXIS2_PLACEMENT_3D('',#383,#384,#385);
#387=CYLINDRICAL_SURFACE('',#386,0.135850000000000);
#388=ORIENTED_EDGE('',*,*,#144,.T.);
#389=ORIENTED_EDGE('',*,*,#377,.F.);
#390=ORIENTED_EDGE('',*,*,#161,.T.);
#391=ORIENTED_EDGE('',*,*,#340,.F.);
#392=EDGE_LOOP('',(#388,#389,#390,#391));
#393=FACE_OUTER_BOUND('',#392,.T.);
#394=ADVANCED_FACE('',(#393),#387,.F.);
#395=CLOSED_SHELL('',(#172,#216,#254,#294,#312,#324,#344,#362,#382,#394));
#396=MANIFOLD_SOLID_BREP('',#395);
#397=ADVANCED_BREP_SHAPE_REPRESENTATION('ABSR',(#396),#123);
#398=SHAPE_REPRESENTATION_RELATIONSHIP('SRR','None',#397,#128);
ENDSEC;
END-ISO-10303-21;
