ISO-10303-21;
HEADER;
FILE_DESCRIPTION (( 'STEP AP214' ),
    '1' );
FILE_NAME ('L30TWMFDA.STEP',
    '2018-07-16T17:44:33',
    ( 'Patrick' ),
    ( '' ),
    'SwSTEP 2.0',
    'SolidWorks 2013',
    '' );
FILE_SCHEMA (( 'AUTOMOTIVE_DESIGN' ));
ENDSEC;

DATA;
#1 = MANIFOLD_SOLID_BREP ( 'Fillet1', #265 ) ;
#2 = CARTESIAN_POINT ( 'NONE',  ( 0.7879000000000000400, 0.0000000000000000000, -1.908500000000000100 ) ) ;
#3 = AXIS2_PLACEMENT_3D ( 'NONE', #59, #77, #50 ) ;
#4 = CARTESIAN_POINT ( 'NONE',  ( 0.7879000000000000400, 0.0000000000000000000, -1.968500000000000100 ) ) ;
#5 = PRODUCT_DEFINITION_CONTEXT ( 'detailed design', #127, 'design' ) ;
#6 = ORIENTED_EDGE ( 'NONE', *, *, #294, .T. ) ;
#7 = ORIENTED_EDGE ( 'NONE', *, *, #174, .F. ) ;
#8 =( NAMED_UNIT ( * ) PLANE_ANGLE_UNIT ( ) SI_UNIT ( $, .RADIAN. ) );
#9 = AXIS2_PLACEMENT_3D ( 'NONE', #317, #306, #270 ) ;
#10 = VERTEX_POINT ( 'NONE', #75 ) ;
#11 = PRESENTATION_STYLE_ASSIGNMENT (( #63 ) ) ;
#12 = ORIENTED_EDGE ( 'NONE', *, *, #286, .T. ) ;
#13 = AXIS2_PLACEMENT_3D ( 'NONE', #326, #209, #307 ) ;
#14 = COLOUR_RGB ( '',0.7921568627450980000, 0.8196078431372548800, 0.9333333333333333500 ) ;
#15 = DIRECTION ( 'NONE',  ( 0.0000000000000000000, 0.0000000000000000000, 1.000000000000000000 ) ) ;
#16 = AXIS2_PLACEMENT_3D ( 'NONE', #279, #245, #163 ) ;
#17 = DIRECTION ( 'NONE',  ( 1.000000000000000000, 0.0000000000000000000, 0.0000000000000000000 ) ) ;
#18 = ORIENTED_EDGE ( 'NONE', *, *, #268, .F. ) ;
#19 = DIRECTION ( 'NONE',  ( 0.0000000000000000000, 0.0000000000000000000, 1.000000000000000000 ) ) ;
#20 = EDGE_LOOP ( 'NONE', ( #194, #223, #26, #207 ) ) ;
#21 = VERTEX_POINT ( 'NONE', #112 ) ;
#22 = CARTESIAN_POINT ( 'NONE',  ( 0.0000000000000000000, 0.0000000000000000000, 0.0000000000000000000 ) ) ;
#23 =( LENGTH_UNIT ( ) NAMED_UNIT ( * ) SI_UNIT ( $, .METRE. ) );
#24 = AXIS2_PLACEMENT_3D ( 'NONE', #221, #85, #139 ) ;
#25 = SURFACE_STYLE_USAGE ( .BOTH. , #27 ) ;
#26 = ORIENTED_EDGE ( 'NONE', *, *, #288, .T. ) ;
#27 = SURFACE_SIDE_STYLE ('',( #54 ) ) ;
#28 =( NAMED_UNIT ( * ) SI_UNIT ( $, .STERADIAN. ) SOLID_ANGLE_UNIT ( ) );
#29 = AXIS2_PLACEMENT_3D ( 'NONE', #318, #316, #310 ) ;
#30 = AXIS2_PLACEMENT_3D ( 'NONE', #46, #34, #33 ) ;
#31 = CARTESIAN_POINT ( 'NONE',  ( 0.7879000000000000400, 0.0000000000000000000, -0.05999999999999990800 ) ) ;
#32 =( NAMED_UNIT ( * ) PLANE_ANGLE_UNIT ( ) SI_UNIT ( $, .RADIAN. ) );
#33 = DIRECTION ( 'NONE',  ( 1.000000000000000000, 0.0000000000000000000, 0.0000000000000000000 ) ) ;
#34 = DIRECTION ( 'NONE',  ( 0.0000000000000000000, 0.0000000000000000000, 1.000000000000000000 ) ) ;
#35 = FILL_AREA_STYLE ('',( #51 ) ) ;
#36 = ADVANCED_FACE ( 'NONE', ( #157 ), #150, .F. ) ;
#37 = CARTESIAN_POINT ( 'NONE',  ( 0.0000000000000000000, 0.0000000000000000000, -1.968500000000000100 ) ) ;
#38 = AXIS2_PLACEMENT_3D ( 'NONE', #22, #19, #17 ) ;
#39 = DIRECTION ( 'NONE',  ( 1.000000000000000000, 0.0000000000000000000, 0.0000000000000000000 ) ) ;
#40 =( GEOMETRIC_REPRESENTATION_CONTEXT ( 3 ) GLOBAL_UNCERTAINTY_ASSIGNED_CONTEXT ( ( #115 ) ) GLOBAL_UNIT_ASSIGNED_CONTEXT ( ( #289, #32, #28 ) ) REPRESENTATION_CONTEXT ( 'NONE', 'WORKASPACE' ) );
#41 = VERTEX_POINT ( 'NONE', #2 ) ;
#42 = UNCERTAINTY_MEASURE_WITH_UNIT (LENGTH_MEASURE( 1.000000000000000100E-005 ), #83, 'distance_accuracy_value', 'NONE');
#43 = AXIS2_PLACEMENT_3D ( 'NONE', #106, #103, #94 ) ;
#44 = EDGE_LOOP ( 'NONE', ( #263, #233 ) ) ;
#45 = LENGTH_MEASURE_WITH_UNIT ( LENGTH_MEASURE( 0.02539999999999999900 ), #95 );
#46 = CARTESIAN_POINT ( 'NONE',  ( 0.0000000000000000000, 0.0000000000000000000, -1.908500000000000100 ) ) ;
#47 = AXIS2_PLACEMENT_3D ( 'NONE', #133, #128, #126 ) ;
#48 = ORIENTED_EDGE ( 'NONE', *, *, #182, .F. ) ;
#49 =( LENGTH_UNIT ( ) NAMED_UNIT ( * ) SI_UNIT ( $, .METRE. ) );
#50 = DIRECTION ( 'NONE',  ( 1.000000000000000000, 0.0000000000000000000, 0.0000000000000000000 ) ) ;
#51 = FILL_AREA_STYLE_COLOUR ( '', #56 ) ;
#52 = CARTESIAN_POINT ( 'NONE',  ( -0.7278999999999999900, 9.281598090737790700E-017, 0.0000000000000000000 ) ) ;
#53 = APPLICATION_CONTEXT ( 'automotive_design' ) ;
#54 = SURFACE_STYLE_FILL_AREA ( #35 ) ;
#55 = CARTESIAN_POINT ( 'NONE',  ( -0.7278999999999999900, 9.281598090737790700E-017, -1.968500000000000100 ) ) ;
#56 = COLOUR_RGB ( '',0.7921568627450980000, 0.8196078431372548800, 0.9333333333333333500 ) ;
#57 = AXIS2_PLACEMENT_3D ( 'NONE', #188, #178, #159 ) ;
#58 = CARTESIAN_POINT ( 'NONE',  ( 0.7278999999999999900, 0.0000000000000000000, 0.0000000000000000000 ) ) ;
#59 = CARTESIAN_POINT ( 'NONE',  ( 0.0000000000000000000, 0.0000000000000000000, -1.968500000000000100 ) ) ;
#60 = ORIENTED_EDGE ( 'NONE', *, *, #222, .F. ) ;
#61 = FACE_OUTER_BOUND ( 'NONE', #216, .T. ) ;
#62 = AXIS2_PLACEMENT_3D ( 'NONE', #185, #171, #165 ) ;
#63 = SURFACE_STYLE_USAGE ( .BOTH. , #72 ) ;
#64 = ADVANCED_FACE ( 'NONE', ( #154 ), #160, .T. ) ;
#65 =( NAMED_UNIT ( * ) SI_UNIT ( $, .STERADIAN. ) SOLID_ANGLE_UNIT ( ) );
#66 = TOROIDAL_SURFACE ( 'NONE', #16, 0.7278999999999999900, 0.05999999999999999800 ) ;
#67 = FACE_BOUND ( 'NONE', #232, .T. ) ;
#68 = AXIS2_PLACEMENT_3D ( 'NONE', #146, #145, #142 ) ;
#69 = LENGTH_MEASURE_WITH_UNIT ( LENGTH_MEASURE( 0.02539999999999999900 ), #23 );
#70 = FACE_BOUND ( 'NONE', #304, .T. ) ;
#71 = FACE_OUTER_BOUND ( 'NONE', #44, .T. ) ;
#72 = SURFACE_SIDE_STYLE ('',( #290 ) ) ;
#73 = AXIS2_PLACEMENT_3D ( 'NONE', #169, #167, #166 ) ;
#74 = CIRCLE ( 'NONE', #308, 0.06000000000000004600 ) ;
#75 = CARTESIAN_POINT ( 'NONE',  ( 0.7278999999999999900, 0.0000000000000000000, -1.968500000000000100 ) ) ;
#76 = FACE_OUTER_BOUND ( 'NONE', #237, .T. ) ;
#77 = DIRECTION ( 'NONE',  ( 0.0000000000000000000, 0.0000000000000000000, 1.000000000000000000 ) ) ;
#78 = FILL_AREA_STYLE ('',( #109 ) ) ;
#79 = CIRCLE ( 'NONE', #300, 0.7879000000000000400 ) ;
#80 = CIRCLE ( 'NONE', #29, 0.5920000000000000800 ) ;
#81 = CARTESIAN_POINT ( 'NONE',  ( -0.7879000000000000400, 9.648992130481995900E-017, -1.968500000000000100 ) ) ;
#82 = CIRCLE ( 'NONE', #272, 0.06000000000000001200 ) ;
#83 =( CONVERSION_BASED_UNIT ( 'INCH', #172 ) LENGTH_UNIT ( ) NAMED_UNIT ( #280 ) );
#84 = AXIS2_PLACEMENT_3D ( 'NONE', #184, #179, #176 ) ;
#85 = DIRECTION ( 'NONE',  ( 0.0000000000000000000, 0.0000000000000000000, 1.000000000000000000 ) ) ;
#86 = VECTOR ( 'NONE', #311, 39.37007874015748100 ) ;
#87 = CIRCLE ( 'NONE', #277, 0.7278999999999999900 ) ;
#88 = DIRECTION ( 'NONE',  ( 0.0000000000000000000, 0.0000000000000000000, 1.000000000000000000 ) ) ;
#89 = CARTESIAN_POINT ( 'NONE',  ( -0.5920000000000000800, 7.249909050952331000E-017, 0.0000000000000000000 ) ) ;
#90 = AXIS2_PLACEMENT_3D ( 'NONE', #303, #282, #39 ) ;
#91 = CYLINDRICAL_SURFACE ( 'NONE', #3, 0.7879000000000000400 ) ;
#92 = CIRCLE ( 'NONE', #9, 0.5920000000000000800 ) ;
#93 = CIRCLE ( 'NONE', #287, 0.7278999999999999900 ) ;
#94 = DIRECTION ( 'NONE',  ( 1.000000000000000000, 0.0000000000000000000, 0.0000000000000000000 ) ) ;
#95 =( LENGTH_UNIT ( ) NAMED_UNIT ( * ) SI_UNIT ( $, .METRE. ) );
#96 = ADVANCED_FACE ( 'NONE', ( #148 ), #141, .T. ) ;
#97 = FACE_OUTER_BOUND ( 'NONE', #261, .T. ) ;
#98 = LINE ( 'NONE', #4, #86 ) ;
#99 = AXIS2_PLACEMENT_3D ( 'NONE', #231, #206, #187 ) ;
#100 = STYLED_ITEM ( 'NONE', ( #238 ), #204 ) ;
#101 = CIRCLE ( 'NONE', #13, 0.7879000000000000400 ) ;
#102 = CYLINDRICAL_SURFACE ( 'NONE', #24, 0.5920000000000000800 ) ;
#103 = DIRECTION ( 'NONE',  ( 0.0000000000000000000, 0.0000000000000000000, 1.000000000000000000 ) ) ;
#104 = LINE ( 'NONE', #81, #113 ) ;
#105 = AXIS2_PLACEMENT_3D ( 'NONE', #37, #152, #134 ) ;
#106 = CARTESIAN_POINT ( 'NONE',  ( 0.0000000000000000000, 0.0000000000000000000, 0.0000000000000000000 ) ) ;
#107 = FACE_OUTER_BOUND ( 'NONE', #248, .T. ) ;
#108 = CIRCLE ( 'NONE', #30, 0.7879000000000000400 ) ;
#109 = FILL_AREA_STYLE_COLOUR ( '', #14 ) ;
#110 = AXIS2_PLACEMENT_3D ( 'NONE', #259, #266, #253 ) ;
#111 = VECTOR ( 'NONE', #114, 39.37007874015748100 ) ;
#112 = CARTESIAN_POINT ( 'NONE',  ( -0.5920000000000000800, 7.249909050952331000E-017, -1.968500000000000100 ) ) ;
#113 = VECTOR ( 'NONE', #88, 39.37007874015748100 ) ;
#114 = DIRECTION ( 'NONE',  ( 0.0000000000000000000, 0.0000000000000000000, 1.000000000000000000 ) ) ;
#115 = UNCERTAINTY_MEASURE_WITH_UNIT (LENGTH_MEASURE( 1.000000000000000100E-005 ), #289, 'distance_accuracy_value', 'NONE');
#116 = CARTESIAN_POINT ( 'NONE',  ( 0.5920000000000000800, 0.0000000000000000000, -1.968500000000000100 ) ) ;
#117 = CIRCLE ( 'NONE', #38, 0.7278999999999999900 ) ;
#118 = VECTOR ( 'NONE', #175, 39.37007874015748100 ) ;
#119 = AXIS2_PLACEMENT_3D ( 'NONE', #130, #15, #309 ) ;
#120 = APPLICATION_PROTOCOL_DEFINITION ( 'draft international standard', 'automotive_design', 1998, #127 ) ;
#121 = CARTESIAN_POINT ( 'NONE',  ( 0.5920000000000000800, 0.0000000000000000000, 0.0000000000000000000 ) ) ;
#122 = LINE ( 'NONE', #116, #111 ) ;
#123 = PRESENTATION_LAYER_ASSIGNMENT (  '', '', ( #100 ) ) ;
#124 = LINE ( 'NONE', #135, #118 ) ;
#125 = CIRCLE ( 'NONE', #43, 0.5920000000000000800 ) ;
#126 = DIRECTION ( 'NONE',  ( 1.000000000000000000, 0.0000000000000000000, 0.0000000000000000000 ) ) ;
#127 = APPLICATION_CONTEXT ( 'automotive_design' ) ;
#128 = DIRECTION ( 'NONE',  ( 0.0000000000000000000, 0.0000000000000000000, 1.000000000000000000 ) ) ;
#129 = ADVANCED_FACE ( 'NONE', ( #155 ), #149, .T. ) ;
#130 = CARTESIAN_POINT ( 'NONE',  ( 0.0000000000000000000, 0.0000000000000000000, -1.908500000000000100 ) ) ;
#131 = CIRCLE ( 'NONE', #68, 0.05999999999999990800 ) ;
#132 = TOROIDAL_SURFACE ( 'NONE', #62, 0.7278999999999999900, 0.05999999999999999800 ) ;
#133 = CARTESIAN_POINT ( 'NONE',  ( 0.0000000000000000000, 0.0000000000000000000, -1.968500000000000100 ) ) ;
#134 = DIRECTION ( 'NONE',  ( 1.000000000000000000, 0.0000000000000000000, 0.0000000000000000000 ) ) ;
#135 = CARTESIAN_POINT ( 'NONE',  ( -0.5920000000000000800, 7.249909050952331000E-017, -1.968500000000000100 ) ) ;
#136 = CIRCLE ( 'NONE', #47, 0.5920000000000000800 ) ;
#137 = FACE_OUTER_BOUND ( 'NONE', #242, .T. ) ;
#138 =( GEOMETRIC_REPRESENTATION_CONTEXT ( 3 ) GLOBAL_UNCERTAINTY_ASSIGNED_CONTEXT ( ( #42 ) ) GLOBAL_UNIT_ASSIGNED_CONTEXT ( ( #83, #8, #65 ) ) REPRESENTATION_CONTEXT ( 'NONE', 'WORKASPACE' ) );
#139 = DIRECTION ( 'NONE',  ( 1.000000000000000000, 0.0000000000000000000, 0.0000000000000000000 ) ) ;
#140 = CIRCLE ( 'NONE', #73, 0.7879000000000000400 ) ;
#141 = CYLINDRICAL_SURFACE ( 'NONE', #90, 0.7879000000000000400 ) ;
#142 = DIRECTION ( 'NONE',  ( 0.0000000000000000000, 0.0000000000000000000, -1.000000000000000000 ) ) ;
#143 = CIRCLE ( 'NONE', #84, 0.06000000000000004600 ) ;
#144 = PRODUCT ( 'L30TWMFDA', 'L30TWMFDA', '', ( #153 ) ) ;
#145 = DIRECTION ( 'NONE',  ( 0.0000000000000000000, -1.000000000000000000, 0.0000000000000000000 ) ) ;
#146 = CARTESIAN_POINT ( 'NONE',  ( 0.7278999999999999900, 0.0000000000000000000, -1.908500000000000100 ) ) ;
#147 = MECHANICAL_DESIGN_GEOMETRIC_PRESENTATION_REPRESENTATION (  '', ( #168 ), #138 ) ;
#148 = FACE_OUTER_BOUND ( 'NONE', #20, .T. ) ;
#149 = TOROIDAL_SURFACE ( 'NONE', #110, 0.7278999999999999900, 0.05999999999999999800 ) ;
#150 = CYLINDRICAL_SURFACE ( 'NONE', #105, 0.5920000000000000800 ) ;
#151 = MECHANICAL_DESIGN_GEOMETRIC_PRESENTATION_REPRESENTATION (  '', ( #100 ), #170 ) ;
#152 = DIRECTION ( 'NONE',  ( 0.0000000000000000000, 0.0000000000000000000, 1.000000000000000000 ) ) ;
#153 = PRODUCT_CONTEXT ( 'NONE', #53, 'mechanical' ) ;
#154 = FACE_OUTER_BOUND ( 'NONE', #267, .T. ) ;
#155 = FACE_OUTER_BOUND ( 'NONE', #243, .T. ) ;
#156 = DIRECTION ( 'NONE',  ( 1.000000000000000000, 0.0000000000000000000, 0.0000000000000000000 ) ) ;
#157 = FACE_OUTER_BOUND ( 'NONE', #255, .T. ) ;
#158 = CARTESIAN_POINT ( 'NONE',  ( 0.0000000000000000000, 0.0000000000000000000, 0.0000000000000000000 ) ) ;
#159 = DIRECTION ( 'NONE',  ( 1.000000000000000000, 0.0000000000000000000, -0.0000000000000000000 ) ) ;
#160 = TOROIDAL_SURFACE ( 'NONE', #119, 0.7278999999999999900, 0.05999999999999999800 ) ;
#161 = PRESENTATION_LAYER_ASSIGNMENT (  '', '', ( #168 ) ) ;
#162 =( NAMED_UNIT ( * ) SI_UNIT ( $, .STERADIAN. ) SOLID_ANGLE_UNIT ( ) );
#163 = DIRECTION ( 'NONE',  ( 1.000000000000000000, 0.0000000000000000000, 0.0000000000000000000 ) ) ;
#164 =( CONVERSION_BASED_UNIT ( 'INCH', #69 ) LENGTH_UNIT ( ) NAMED_UNIT ( #301 ) );
#165 = DIRECTION ( 'NONE',  ( 1.000000000000000000, 0.0000000000000000000, 0.0000000000000000000 ) ) ;
#166 = DIRECTION ( 'NONE',  ( 1.000000000000000000, 0.0000000000000000000, 0.0000000000000000000 ) ) ;
#167 = DIRECTION ( 'NONE',  ( 0.0000000000000000000, 0.0000000000000000000, 1.000000000000000000 ) ) ;
#168 = STYLED_ITEM ( 'NONE', ( #11 ), #1 ) ;
#169 = CARTESIAN_POINT ( 'NONE',  ( 0.0000000000000000000, 0.0000000000000000000, -1.908500000000000100 ) ) ;
#170 =( GEOMETRIC_REPRESENTATION_CONTEXT ( 3 ) GLOBAL_UNCERTAINTY_ASSIGNED_CONTEXT ( ( #314 ) ) GLOBAL_UNIT_ASSIGNED_CONTEXT ( ( #164, #215, #162 ) ) REPRESENTATION_CONTEXT ( 'NONE', 'WORKASPACE' ) );
#171 = DIRECTION ( 'NONE',  ( 0.0000000000000000000, 0.0000000000000000000, 1.000000000000000000 ) ) ;
#172 = LENGTH_MEASURE_WITH_UNIT ( LENGTH_MEASURE( 0.02539999999999999900 ), #49 );
#173 = CIRCLE ( 'NONE', #99, 0.7278999999999999900 ) ;
#174 = EDGE_CURVE ( 'NONE', #225, #10, #173, .T. ) ;
#175 = DIRECTION ( 'NONE',  ( 0.0000000000000000000, 0.0000000000000000000, 1.000000000000000000 ) ) ;
#176 = DIRECTION ( 'NONE',  ( -1.000000000000000000, 1.224646799147352200E-016, 0.0000000000000000000 ) ) ;
#177 = EDGE_CURVE ( 'NONE', #225, #275, #143, .T. ) ;
#178 = DIRECTION ( 'NONE',  ( 0.0000000000000000000, 0.0000000000000000000, 1.000000000000000000 ) ) ;
#179 = DIRECTION ( 'NONE',  ( 1.224646799147353200E-016, 1.000000000000000000, -0.0000000000000000000 ) ) ;
#180 = CARTESIAN_POINT ( 'NONE',  ( -0.7879000000000000400, 9.648992130481995900E-017, -0.05999999999999990800 ) ) ;
#181 = CARTESIAN_POINT ( 'NONE',  ( 0.5920000000000000800, 0.0000000000000000000, -1.968500000000000100 ) ) ;
#182 = EDGE_CURVE ( 'NONE', #41, #275, #140, .T. ) ;
#183 = DIRECTION ( 'NONE',  ( 0.0000000000000000000, 0.0000000000000000000, 1.000000000000000000 ) ) ;
#184 = CARTESIAN_POINT ( 'NONE',  ( -0.7278999999999999900, 8.914204050993585600E-017, -1.908500000000000100 ) ) ;
#185 = CARTESIAN_POINT ( 'NONE',  ( 0.0000000000000000000, 0.0000000000000000000, -0.05999999999999990800 ) ) ;
#186 = PLANE ( 'NONE',  #57 ) ;
#187 = DIRECTION ( 'NONE',  ( 1.000000000000000000, 0.0000000000000000000, 0.0000000000000000000 ) ) ;
#188 = CARTESIAN_POINT ( 'NONE',  ( 0.0000000000000000000, 0.0000000000000000000, 0.0000000000000000000 ) ) ;
#189 = ADVANCED_FACE ( 'NONE', ( #137 ), #132, .T. ) ;
#190 = EDGE_CURVE ( 'NONE', #10, #41, #131, .T. ) ;
#191 = ORIENTED_EDGE ( 'NONE', *, *, #283, .T. ) ;
#192 = ORIENTED_EDGE ( 'NONE', *, *, #256, .T. ) ;
#193 = EDGE_CURVE ( 'NONE', #21, #319, #136, .T. ) ;
#194 = ORIENTED_EDGE ( 'NONE', *, *, #182, .T. ) ;
#195 = ORIENTED_EDGE ( 'NONE', *, *, #199, .F. ) ;
#196 = ORIENTED_EDGE ( 'NONE', *, *, #276, .T. ) ;
#197 = ORIENTED_EDGE ( 'NONE', *, *, #286, .F. ) ;
#198 = ORIENTED_EDGE ( 'NONE', *, *, #252, .T. ) ;
#199 = EDGE_CURVE ( 'NONE', #21, #217, #124, .T. ) ;
#200 = VERTEX_POINT ( 'NONE', #121 ) ;
#201 = ORIENTED_EDGE ( 'NONE', *, *, #244, .T. ) ;
#202 = ORIENTED_EDGE ( 'NONE', *, *, #177, .T. ) ;
#203 = DIRECTION ( 'NONE',  ( 1.000000000000000000, 0.0000000000000000000, -0.0000000000000000000 ) ) ;
#204 = ADVANCED_BREP_SHAPE_REPRESENTATION ( 'L30TWMFDA', ( #1, #226 ), #40 ) ;
#205 = ORIENTED_EDGE ( 'NONE', *, *, #190, .T. ) ;
#206 = DIRECTION ( 'NONE',  ( -0.0000000000000000000, -0.0000000000000000000, -1.000000000000000000 ) ) ;
#207 = ORIENTED_EDGE ( 'NONE', *, *, #262, .F. ) ;
#208 = EDGE_CURVE ( 'NONE', #217, #200, #125, .T. ) ;
#209 = DIRECTION ( 'NONE',  ( -0.0000000000000000000, -0.0000000000000000000, -1.000000000000000000 ) ) ;
#210 = APPLICATION_PROTOCOL_DEFINITION ( 'draft international standard', 'automotive_design', 1998, #53 ) ;
#211 = ORIENTED_EDGE ( 'NONE', *, *, #288, .F. ) ;
#212 = ORIENTED_EDGE ( 'NONE', *, *, #193, .F. ) ;
#213 = ORIENTED_EDGE ( 'NONE', *, *, #256, .F. ) ;
#214 = EDGE_CURVE ( 'NONE', #319, #200, #122, .T. ) ;
#215 =( NAMED_UNIT ( * ) PLANE_ANGLE_UNIT ( ) SI_UNIT ( $, .RADIAN. ) );
#216 = EDGE_LOOP ( 'NONE', ( #12, #201 ) ) ;
#217 = VERTEX_POINT ( 'NONE', #89 ) ;
#218 = ADVANCED_FACE ( 'NONE', ( #107 ), #102, .F. ) ;
#219 = ORIENTED_EDGE ( 'NONE', *, *, #262, .T. ) ;
#220 = DIRECTION ( 'NONE',  ( 0.0000000000000000000, 0.0000000000000000000, 1.000000000000000000 ) ) ;
#221 = CARTESIAN_POINT ( 'NONE',  ( 0.0000000000000000000, 0.0000000000000000000, -1.968500000000000100 ) ) ;
#222 = EDGE_CURVE ( 'NONE', #275, #324, #104, .T. ) ;
#223 = ORIENTED_EDGE ( 'NONE', *, *, #222, .T. ) ;
#224 = ORIENTED_EDGE ( 'NONE', *, *, #214, .F. ) ;
#225 = VERTEX_POINT ( 'NONE', #55 ) ;
#226 = AXIS2_PLACEMENT_3D ( 'NONE', #158, #183, #156 ) ;
#227 = VERTEX_POINT ( 'NONE', #58 ) ;
#228 = ORIENTED_EDGE ( 'NONE', *, *, #208, .F. ) ;
#229 = DIMENSIONAL_EXPONENTS ( 1.000000000000000000, 0.0000000000000000000, 0.0000000000000000000, 0.0000000000000000000, 0.0000000000000000000, 0.0000000000000000000, 0.0000000000000000000 ) ;
#230 = EDGE_CURVE ( 'NONE', #275, #41, #108, .T. ) ;
#231 = CARTESIAN_POINT ( 'NONE',  ( 0.0000000000000000000, 0.0000000000000000000, -1.968500000000000100 ) ) ;
#232 = EDGE_LOOP ( 'NONE', ( #284, #228 ) ) ;
#233 = ORIENTED_EDGE ( 'NONE', *, *, #174, .T. ) ;
#234 = DIRECTION ( 'NONE',  ( -1.000000000000000000, 1.224646799147352200E-016, 0.0000000000000000000 ) ) ;
#235 = VERTEX_POINT ( 'NONE', #52 ) ;
#236 = ORIENTED_EDGE ( 'NONE', *, *, #214, .T. ) ;
#237 = EDGE_LOOP ( 'NONE', ( #211, #6, #197, #274 ) ) ;
#238 = PRESENTATION_STYLE_ASSIGNMENT (( #25 ) ) ;
#239 = DIRECTION ( 'NONE',  ( 1.224646799147353200E-016, 1.000000000000000000, -0.0000000000000000000 ) ) ;
#240 = CARTESIAN_POINT ( 'NONE',  ( -0.7278999999999999900, 8.914204050993585600E-017, -0.05999999999999990800 ) ) ;
#241 = PLANE ( 'NONE',  #327 ) ;
#242 = EDGE_LOOP ( 'NONE', ( #254, #213, #191, #260 ) ) ;
#243 = EDGE_LOOP ( 'NONE', ( #281, #18, #205, #313 ) ) ;
#244 = EDGE_CURVE ( 'NONE', #235, #227, #117, .T. ) ;
#245 = DIRECTION ( 'NONE',  ( 0.0000000000000000000, 0.0000000000000000000, 1.000000000000000000 ) ) ;
#246 = PRODUCT_DEFINITION ( 'UNKNOWN', '', #264, #5 ) ;
#247 = ORIENTED_EDGE ( 'NONE', *, *, #190, .F. ) ;
#248 = EDGE_LOOP ( 'NONE', ( #212, #295, #258, #224 ) ) ;
#249 = VERTEX_POINT ( 'NONE', #31 ) ;
#250 = DIRECTION ( 'NONE',  ( 1.000000000000000000, 0.0000000000000000000, 0.0000000000000000000 ) ) ;
#251 = ADVANCED_FACE ( 'NONE', ( #97 ), #91, .T. ) ;
#252 = EDGE_CURVE ( 'NONE', #200, #217, #92, .T. ) ;
#253 = DIRECTION ( 'NONE',  ( 1.000000000000000000, 0.0000000000000000000, 0.0000000000000000000 ) ) ;
#254 = ORIENTED_EDGE ( 'NONE', *, *, #294, .F. ) ;
#255 = EDGE_LOOP ( 'NONE', ( #195, #269, #236, #198 ) ) ;
#256 = EDGE_CURVE ( 'NONE', #249, #324, #101, .T. ) ;
#257 = ORIENTED_EDGE ( 'NONE', *, *, #230, .T. ) ;
#258 = ORIENTED_EDGE ( 'NONE', *, *, #208, .T. ) ;
#259 = CARTESIAN_POINT ( 'NONE',  ( 0.0000000000000000000, 0.0000000000000000000, -1.908500000000000100 ) ) ;
#260 = ORIENTED_EDGE ( 'NONE', *, *, #244, .F. ) ;
#261 = EDGE_LOOP ( 'NONE', ( #60, #257, #219, #192 ) ) ;
#262 = EDGE_CURVE ( 'NONE', #41, #249, #98, .T. ) ;
#263 = ORIENTED_EDGE ( 'NONE', *, *, #268, .T. ) ;
#264 = PRODUCT_DEFINITION_FORMATION_WITH_SPECIFIED_SOURCE ( 'ANY', '', #144, .NOT_KNOWN. ) ;
#265 = CLOSED_SHELL ( 'NONE', ( #312, #64, #218, #96, #251, #299, #321, #36, #129, #189 ) ) ;
#266 = DIRECTION ( 'NONE',  ( 0.0000000000000000000, 0.0000000000000000000, 1.000000000000000000 ) ) ;
#267 = EDGE_LOOP ( 'NONE', ( #7, #202, #48, #247 ) ) ;
#268 = EDGE_CURVE ( 'NONE', #10, #225, #87, .T. ) ;
#269 = ORIENTED_EDGE ( 'NONE', *, *, #276, .F. ) ;
#270 = DIRECTION ( 'NONE',  ( 1.000000000000000000, 0.0000000000000000000, 0.0000000000000000000 ) ) ;
#271 = ORIENTED_EDGE ( 'NONE', *, *, #193, .T. ) ;
#272 = AXIS2_PLACEMENT_3D ( 'NONE', #305, #298, #297 ) ;
#273 = DIRECTION ( 'NONE',  ( -0.0000000000000000000, -0.0000000000000000000, -1.000000000000000000 ) ) ;
#274 = ORIENTED_EDGE ( 'NONE', *, *, #283, .F. ) ;
#275 = VERTEX_POINT ( 'NONE', #325 ) ;
#276 = EDGE_CURVE ( 'NONE', #319, #21, #80, .T. ) ;
#277 = AXIS2_PLACEMENT_3D ( 'NONE', #323, #322, #320 ) ;
#278 = CARTESIAN_POINT ( 'NONE',  ( 0.0000000000000000000, 0.0000000000000000000, -0.05999999999999990800 ) ) ;
#279 = CARTESIAN_POINT ( 'NONE',  ( 0.0000000000000000000, 0.0000000000000000000, -0.05999999999999990800 ) ) ;
#280 = DIMENSIONAL_EXPONENTS ( 1.000000000000000000, 0.0000000000000000000, 0.0000000000000000000, 0.0000000000000000000, 0.0000000000000000000, 0.0000000000000000000, 0.0000000000000000000 ) ;
#281 = ORIENTED_EDGE ( 'NONE', *, *, #177, .F. ) ;
#282 = DIRECTION ( 'NONE',  ( 0.0000000000000000000, 0.0000000000000000000, 1.000000000000000000 ) ) ;
#283 = EDGE_CURVE ( 'NONE', #249, #227, #82, .T. ) ;
#284 = ORIENTED_EDGE ( 'NONE', *, *, #252, .F. ) ;
#285 = PRODUCT_RELATED_PRODUCT_CATEGORY ( 'part', '', ( #144 ) ) ;
#286 = EDGE_CURVE ( 'NONE', #227, #235, #93, .T. ) ;
#287 = AXIS2_PLACEMENT_3D ( 'NONE', #293, #292, #291 ) ;
#288 = EDGE_CURVE ( 'NONE', #324, #249, #79, .T. ) ;
#289 =( CONVERSION_BASED_UNIT ( 'INCH', #45 ) LENGTH_UNIT ( ) NAMED_UNIT ( #229 ) );
#290 = SURFACE_STYLE_FILL_AREA ( #78 ) ;
#291 = DIRECTION ( 'NONE',  ( 1.000000000000000000, 0.0000000000000000000, 0.0000000000000000000 ) ) ;
#292 = DIRECTION ( 'NONE',  ( 0.0000000000000000000, 0.0000000000000000000, 1.000000000000000000 ) ) ;
#293 = CARTESIAN_POINT ( 'NONE',  ( 0.0000000000000000000, 0.0000000000000000000, 0.0000000000000000000 ) ) ;
#294 = EDGE_CURVE ( 'NONE', #324, #235, #74, .T. ) ;
#295 = ORIENTED_EDGE ( 'NONE', *, *, #199, .T. ) ;
#296 = CARTESIAN_POINT ( 'NONE',  ( 0.0000000000000000000, 0.0000000000000000000, -1.968500000000000100 ) ) ;
#297 = DIRECTION ( 'NONE',  ( 0.0000000000000000000, 0.0000000000000000000, -1.000000000000000000 ) ) ;
#298 = DIRECTION ( 'NONE',  ( 0.0000000000000000000, -1.000000000000000000, 0.0000000000000000000 ) ) ;
#299 = ADVANCED_FACE ( 'NONE', ( #71, #70 ), #241, .F. ) ;
#300 = AXIS2_PLACEMENT_3D ( 'NONE', #278, #273, #250 ) ;
#301 = DIMENSIONAL_EXPONENTS ( 1.000000000000000000, 0.0000000000000000000, 0.0000000000000000000, 0.0000000000000000000, 0.0000000000000000000, 0.0000000000000000000, 0.0000000000000000000 ) ;
#302 = PRODUCT_DEFINITION_SHAPE ( 'NONE', 'NONE',  #246 ) ;
#303 = CARTESIAN_POINT ( 'NONE',  ( 0.0000000000000000000, 0.0000000000000000000, -1.968500000000000100 ) ) ;
#304 = EDGE_LOOP ( 'NONE', ( #196, #271 ) ) ;
#305 = CARTESIAN_POINT ( 'NONE',  ( 0.7278999999999999900, 0.0000000000000000000, -0.05999999999999990800 ) ) ;
#306 = DIRECTION ( 'NONE',  ( 0.0000000000000000000, 0.0000000000000000000, 1.000000000000000000 ) ) ;
#307 = DIRECTION ( 'NONE',  ( 1.000000000000000000, 0.0000000000000000000, 0.0000000000000000000 ) ) ;
#308 = AXIS2_PLACEMENT_3D ( 'NONE', #240, #239, #234 ) ;
#309 = DIRECTION ( 'NONE',  ( 1.000000000000000000, 0.0000000000000000000, 0.0000000000000000000 ) ) ;
#310 = DIRECTION ( 'NONE',  ( 1.000000000000000000, 0.0000000000000000000, 0.0000000000000000000 ) ) ;
#311 = DIRECTION ( 'NONE',  ( 0.0000000000000000000, 0.0000000000000000000, 1.000000000000000000 ) ) ;
#312 = ADVANCED_FACE ( 'NONE', ( #76 ), #66, .T. ) ;
#313 = ORIENTED_EDGE ( 'NONE', *, *, #230, .F. ) ;
#314 = UNCERTAINTY_MEASURE_WITH_UNIT (LENGTH_MEASURE( 1.000000000000000100E-005 ), #164, 'distance_accuracy_value', 'NONE');
#315 = SHAPE_DEFINITION_REPRESENTATION ( #302, #204 ) ;
#316 = DIRECTION ( 'NONE',  ( 0.0000000000000000000, 0.0000000000000000000, 1.000000000000000000 ) ) ;
#317 = CARTESIAN_POINT ( 'NONE',  ( 0.0000000000000000000, 0.0000000000000000000, 0.0000000000000000000 ) ) ;
#318 = CARTESIAN_POINT ( 'NONE',  ( 0.0000000000000000000, 0.0000000000000000000, -1.968500000000000100 ) ) ;
#319 = VERTEX_POINT ( 'NONE', #181 ) ;
#320 = DIRECTION ( 'NONE',  ( 1.000000000000000000, 0.0000000000000000000, 0.0000000000000000000 ) ) ;
#321 = ADVANCED_FACE ( 'NONE', ( #61, #67 ), #186, .T. ) ;
#322 = DIRECTION ( 'NONE',  ( -0.0000000000000000000, -0.0000000000000000000, -1.000000000000000000 ) ) ;
#323 = CARTESIAN_POINT ( 'NONE',  ( 0.0000000000000000000, 0.0000000000000000000, -1.968500000000000100 ) ) ;
#324 = VERTEX_POINT ( 'NONE', #180 ) ;
#325 = CARTESIAN_POINT ( 'NONE',  ( -0.7879000000000000400, 9.648992130481995900E-017, -1.908500000000000100 ) ) ;
#326 = CARTESIAN_POINT ( 'NONE',  ( 0.0000000000000000000, 0.0000000000000000000, -0.05999999999999990800 ) ) ;
#327 = AXIS2_PLACEMENT_3D ( 'NONE', #296, #220, #203 ) ;
ENDSEC;
END-ISO-10303-21;
