ISO-10303-21;
HEADER;
FILE_DESCRIPTION (( 'STEP AP214' ),
    '1' );
FILE_NAME ('L25TWMFDA.STEP',
    '2018-07-16T17:44:14',
    ( 'Patrick' ),
    ( '' ),
    'SwSTEP 2.0',
    'SolidWorks 2013',
    '' );
FILE_SCHEMA (( 'AUTOMOTIVE_DESIGN' ));
ENDSEC;

DATA;
#1 = MANIFOLD_SOLID_BREP ( 'Fillet1', #304 ) ;
#2 = AXIS2_PLACEMENT_3D ( 'NONE', #30, #23, #291 ) ;
#3 = ORIENTED_EDGE ( 'NONE', *, *, #282, .T. ) ;
#4 = CARTESIAN_POINT ( 'NONE',  ( 0.0000000000000000000, 0.0000000000000000000, -1.504799999999999900 ) ) ;
#5 = ADVANCED_FACE ( 'NONE', ( #168, #167 ), #231, .F. ) ;
#6 = DIRECTION ( 'NONE',  ( 1.000000000000000000, 0.0000000000000000000, 0.0000000000000000000 ) ) ;
#7 = CARTESIAN_POINT ( 'NONE',  ( 0.0000000000000000000, 0.0000000000000000000, -1.574800000000000200 ) ) ;
#8 = DIRECTION ( 'NONE',  ( 0.0000000000000000000, 0.0000000000000000000, 1.000000000000000000 ) ) ;
#9 = PRODUCT_DEFINITION_CONTEXT ( 'detailed design', #120, 'design' ) ;
#10 = AXIS2_PLACEMENT_3D ( 'NONE', #314, #309, #307 ) ;
#11 = AXIS2_PLACEMENT_3D ( 'NONE', #21, #8, #6 ) ;
#12 = LENGTH_MEASURE_WITH_UNIT ( LENGTH_MEASURE( 0.02539999999999999900 ), #238 );
#13 = PRODUCT ( 'L25TWMFDA', 'L25TWMFDA', '', ( #123 ) ) ;
#14 = AXIS2_PLACEMENT_3D ( 'NONE', #326, #320, #311 ) ;
#15 = CARTESIAN_POINT ( 'NONE',  ( -0.4932000000000000300, 6.039958013394746700E-017, -1.574800000000000200 ) ) ;
#16 = DIRECTION ( 'NONE',  ( 0.0000000000000000000, 0.0000000000000000000, 1.000000000000000000 ) ) ;
#17 = DIRECTION ( 'NONE',  ( 0.0000000000000000000, 0.0000000000000000000, 1.000000000000000000 ) ) ;
#18 = DIRECTION ( 'NONE',  ( 0.0000000000000000000, 0.0000000000000000000, 1.000000000000000000 ) ) ;
#19 = CARTESIAN_POINT ( 'NONE',  ( 0.6196999999999999200, 0.0000000000000000000, -1.574800000000000200 ) ) ;
#20 = AXIS2_PLACEMENT_3D ( 'NONE', #32, #31, #28 ) ;
#21 = CARTESIAN_POINT ( 'NONE',  ( 0.0000000000000000000, 0.0000000000000000000, 0.0000000000000000000 ) ) ;
#22 = PRESENTATION_STYLE_ASSIGNMENT (( #183 ) ) ;
#23 = DIRECTION ( 'NONE',  ( 1.224646799147353200E-016, 1.000000000000000000, -0.0000000000000000000 ) ) ;
#24 = AXIS2_PLACEMENT_3D ( 'NONE', #4, #18, #313 ) ;
#25 = AXIS2_PLACEMENT_3D ( 'NONE', #71, #109, #158 ) ;
#26 = COLOUR_RGB ( '',0.7921568627450980000, 0.8196078431372548800, 0.9333333333333333500 ) ;
#27 = CYLINDRICAL_SURFACE ( 'NONE', #94, 0.6896999999999998700 ) ;
#28 = DIRECTION ( 'NONE',  ( 0.0000000000000000000, 0.0000000000000000000, -1.000000000000000000 ) ) ;
#29 = ADVANCED_FACE ( 'NONE', ( #164 ), #128, .T. ) ;
#30 = CARTESIAN_POINT ( 'NONE',  ( -0.6196999999999999200, 7.589136214316146900E-017, -0.07000000000000007600 ) ) ;
#31 = DIRECTION ( 'NONE',  ( 0.0000000000000000000, -1.000000000000000000, 0.0000000000000000000 ) ) ;
#32 = CARTESIAN_POINT ( 'NONE',  ( 0.6196999999999999200, 0.0000000000000000000, -0.07000000000000007600 ) ) ;
#33 = SURFACE_STYLE_FILL_AREA ( #190 ) ;
#34 = VERTEX_POINT ( 'NONE', #127 ) ;
#35 = AXIS2_PLACEMENT_3D ( 'NONE', #177, #100, #77 ) ;
#36 = AXIS2_PLACEMENT_3D ( 'NONE', #279, #277, #272 ) ;
#37 = SHAPE_DEFINITION_REPRESENTATION ( #169, #38 ) ;
#38 = ADVANCED_BREP_SHAPE_REPRESENTATION ( 'L25TWMFDA', ( #1, #243 ), #49 ) ;
#39 = AXIS2_PLACEMENT_3D ( 'NONE', #54, #52, #50 ) ;
#40 = CIRCLE ( 'NONE', #36, 0.07000000000000007600 ) ;
#41 = LENGTH_MEASURE_WITH_UNIT ( LENGTH_MEASURE( 0.02539999999999999900 ), #179 );
#42 = CARTESIAN_POINT ( 'NONE',  ( -0.6896999999999998700, 8.446388973719294700E-017, -1.504799999999999900 ) ) ;
#43 = AXIS2_PLACEMENT_3D ( 'NONE', #88, #81, #78 ) ;
#44 = CIRCLE ( 'NONE', #327, 0.6896999999999998700 ) ;
#45 = CARTESIAN_POINT ( 'NONE',  ( -0.4932000000000000300, 6.039958013394746700E-017, 0.0000000000000000000 ) ) ;
#46 =( NAMED_UNIT ( * ) SI_UNIT ( $, .STERADIAN. ) SOLID_ANGLE_UNIT ( ) );
#47 = ORIENTED_EDGE ( 'NONE', *, *, #292, .F. ) ;
#48 = DIRECTION ( 'NONE',  ( 1.000000000000000000, 0.0000000000000000000, 0.0000000000000000000 ) ) ;
#49 =( GEOMETRIC_REPRESENTATION_CONTEXT ( 3 ) GLOBAL_UNCERTAINTY_ASSIGNED_CONTEXT ( ( #107 ) ) GLOBAL_UNIT_ASSIGNED_CONTEXT ( ( #236, #234, #229 ) ) REPRESENTATION_CONTEXT ( 'NONE', 'WORKASPACE' ) );
#50 = DIRECTION ( 'NONE',  ( 1.000000000000000000, 0.0000000000000000000, 0.0000000000000000000 ) ) ;
#51 = TOROIDAL_SURFACE ( 'NONE', #14, 0.6196999999999999200, 0.07000000000000000700 ) ;
#52 = DIRECTION ( 'NONE',  ( 0.0000000000000000000, 0.0000000000000000000, 1.000000000000000000 ) ) ;
#53 = ORIENTED_EDGE ( 'NONE', *, *, #195, .T. ) ;
#54 = CARTESIAN_POINT ( 'NONE',  ( 0.0000000000000000000, 0.0000000000000000000, 0.0000000000000000000 ) ) ;
#55 = CARTESIAN_POINT ( 'NONE',  ( 0.0000000000000000000, 0.0000000000000000000, -1.574800000000000200 ) ) ;
#56 = CARTESIAN_POINT ( 'NONE',  ( 0.6896999999999998700, 0.0000000000000000000, -1.574800000000000200 ) ) ;
#57 = FACE_OUTER_BOUND ( 'NONE', #202, .T. ) ;
#58 = CIRCLE ( 'NONE', #2, 0.07000000000000007600 ) ;
#59 = AXIS2_PLACEMENT_3D ( 'NONE', #115, #114, #112 ) ;
#60 = EDGE_LOOP ( 'NONE', ( #254, #212, #53, #262 ) ) ;
#61 = FACE_OUTER_BOUND ( 'NONE', #136, .T. ) ;
#62 = ORIENTED_EDGE ( 'NONE', *, *, #269, .T. ) ;
#63 = AXIS2_PLACEMENT_3D ( 'NONE', #138, #137, #135 ) ;
#64 = VECTOR ( 'NONE', #242, 39.37007874015748100 ) ;
#65 = CIRCLE ( 'NONE', #321, 0.07000000000000007600 ) ;
#66 = DIRECTION ( 'NONE',  ( 1.000000000000000000, 0.0000000000000000000, 0.0000000000000000000 ) ) ;
#67 = AXIS2_PLACEMENT_3D ( 'NONE', #154, #153, #244 ) ;
#68 = STYLED_ITEM ( 'NONE', ( #172 ), #38 ) ;
#69 = LINE ( 'NONE', #290, #64 ) ;
#70 = TOROIDAL_SURFACE ( 'NONE', #24, 0.6196999999999999200, 0.07000000000000000700 ) ;
#71 = CARTESIAN_POINT ( 'NONE',  ( 0.0000000000000000000, 0.0000000000000000000, -0.07000000000000007600 ) ) ;
#72 = FACE_OUTER_BOUND ( 'NONE', #216, .T. ) ;
#73 = CIRCLE ( 'NONE', #10, 0.6896999999999998700 ) ;
#74 = DIRECTION ( 'NONE',  ( 0.0000000000000000000, 0.0000000000000000000, 1.000000000000000000 ) ) ;
#75 = CIRCLE ( 'NONE', #11, 0.6196999999999999200 ) ;
#76 = AXIS2_PLACEMENT_3D ( 'NONE', #173, #166, #162 ) ;
#77 = DIRECTION ( 'NONE',  ( 1.000000000000000000, 0.0000000000000000000, 0.0000000000000000000 ) ) ;
#78 = DIRECTION ( 'NONE',  ( 1.000000000000000000, 0.0000000000000000000, 0.0000000000000000000 ) ) ;
#79 = VECTOR ( 'NONE', #74, 39.37007874015748100 ) ;
#80 = CIRCLE ( 'NONE', #20, 0.07000000000000000700 ) ;
#81 = DIRECTION ( 'NONE',  ( 0.0000000000000000000, 0.0000000000000000000, 1.000000000000000000 ) ) ;
#82 = CARTESIAN_POINT ( 'NONE',  ( -0.4932000000000000300, 6.039958013394746700E-017, -1.574800000000000200 ) ) ;
#83 = AXIS2_PLACEMENT_3D ( 'NONE', #55, #16, #66 ) ;
#84 = ADVANCED_FACE ( 'NONE', ( #155, #130 ), #132, .T. ) ;
#85 = CIRCLE ( 'NONE', #276, 0.6196999999999999200 ) ;
#86 = CIRCLE ( 'NONE', #39, 0.4932000000000000300 ) ;
#87 = TOROIDAL_SURFACE ( 'NONE', #25, 0.6196999999999999200, 0.07000000000000000700 ) ;
#88 = CARTESIAN_POINT ( 'NONE',  ( 0.0000000000000000000, 0.0000000000000000000, 0.0000000000000000000 ) ) ;
#89 = DIMENSIONAL_EXPONENTS ( 1.000000000000000000, 0.0000000000000000000, 0.0000000000000000000, 0.0000000000000000000, 0.0000000000000000000, 0.0000000000000000000, 0.0000000000000000000 ) ;
#90 = APPLICATION_PROTOCOL_DEFINITION ( 'draft international standard', 'automotive_design', 1998, #120 ) ;
#91 = LINE ( 'NONE', #56, #79 ) ;
#92 = TOROIDAL_SURFACE ( 'NONE', #35, 0.6196999999999999200, 0.07000000000000000700 ) ;
#93 = AXIS2_PLACEMENT_3D ( 'NONE', #103, #159, #126 ) ;
#94 = AXIS2_PLACEMENT_3D ( 'NONE', #289, #300, #288 ) ;
#95 = FACE_OUTER_BOUND ( 'NONE', #253, .T. ) ;
#96 = CIRCLE ( 'NONE', #59, 0.4932000000000000300 ) ;
#97 = DIRECTION ( 'NONE',  ( 1.000000000000000000, 0.0000000000000000000, -0.0000000000000000000 ) ) ;
#98 = CIRCLE ( 'NONE', #43, 0.6196999999999999200 ) ;
#99 = AXIS2_PLACEMENT_3D ( 'NONE', #237, #235, #228 ) ;
#100 = DIRECTION ( 'NONE',  ( 0.0000000000000000000, 0.0000000000000000000, 1.000000000000000000 ) ) ;
#101 = CIRCLE ( 'NONE', #76, 0.6896999999999998700 ) ;
#102 = VECTOR ( 'NONE', #186, 39.37007874015748100 ) ;
#103 = CARTESIAN_POINT ( 'NONE',  ( 0.0000000000000000000, 0.0000000000000000000, -1.574800000000000200 ) ) ;
#104 = AXIS2_PLACEMENT_3D ( 'NONE', #122, #108, #97 ) ;
#105 = LINE ( 'NONE', #263, #102 ) ;
#106 = FACE_OUTER_BOUND ( 'NONE', #196, .T. ) ;
#107 = UNCERTAINTY_MEASURE_WITH_UNIT (LENGTH_MEASURE( 1.000000000000000100E-005 ), #236, 'distance_accuracy_value', 'NONE');
#108 = DIRECTION ( 'NONE',  ( 0.0000000000000000000, 0.0000000000000000000, 1.000000000000000000 ) ) ;
#109 = DIRECTION ( 'NONE',  ( 0.0000000000000000000, 0.0000000000000000000, 1.000000000000000000 ) ) ;
#110 = CIRCLE ( 'NONE', #67, 0.6896999999999998700 ) ;
#111 = VECTOR ( 'NONE', #17, 39.37007874015748100 ) ;
#112 = DIRECTION ( 'NONE',  ( 1.000000000000000000, 0.0000000000000000000, 0.0000000000000000000 ) ) ;
#113 = AXIS2_PLACEMENT_3D ( 'NONE', #261, #281, #48 ) ;
#114 = DIRECTION ( 'NONE',  ( 0.0000000000000000000, 0.0000000000000000000, 1.000000000000000000 ) ) ;
#115 = CARTESIAN_POINT ( 'NONE',  ( 0.0000000000000000000, 0.0000000000000000000, -1.574800000000000200 ) ) ;
#116 = CYLINDRICAL_SURFACE ( 'NONE', #83, 0.4932000000000000300 ) ;
#117 = CIRCLE ( 'NONE', #139, 0.4932000000000000300 ) ;
#118 = CYLINDRICAL_SURFACE ( 'NONE', #93, 0.4932000000000000300 ) ;
#119 = CARTESIAN_POINT ( 'NONE',  ( 0.4932000000000000300, 0.0000000000000000000, -1.574800000000000200 ) ) ;
#120 = APPLICATION_CONTEXT ( 'automotive_design' ) ;
#121 = ADVANCED_FACE ( 'NONE', ( #157 ), #118, .F. ) ;
#122 = CARTESIAN_POINT ( 'NONE',  ( 0.0000000000000000000, 0.0000000000000000000, 0.0000000000000000000 ) ) ;
#123 = PRODUCT_CONTEXT ( 'NONE', #205, 'mechanical' ) ;
#124 = FACE_OUTER_BOUND ( 'NONE', #60, .T. ) ;
#125 = CIRCLE ( 'NONE', #99, 0.4932000000000000300 ) ;
#126 = DIRECTION ( 'NONE',  ( 1.000000000000000000, 0.0000000000000000000, 0.0000000000000000000 ) ) ;
#127 = CARTESIAN_POINT ( 'NONE',  ( -0.6196999999999999200, 8.017762594017722100E-017, 0.0000000000000000000 ) ) ;
#128 = CYLINDRICAL_SURFACE ( 'NONE', #113, 0.6896999999999998700 ) ;
#129 = COLOUR_RGB ( '',0.7921568627450980000, 0.8196078431372548800, 0.9333333333333333500 ) ;
#130 = FACE_BOUND ( 'NONE', #200, .T. ) ;
#131 = AXIS2_PLACEMENT_3D ( 'NONE', #225, #252, #303 ) ;
#132 = PLANE ( 'NONE',  #104 ) ;
#133 = ORIENTED_EDGE ( 'NONE', *, *, #241, .T. ) ;
#134 = ORIENTED_EDGE ( 'NONE', *, *, #213, .F. ) ;
#135 = DIRECTION ( 'NONE',  ( 1.000000000000000000, 0.0000000000000000000, 0.0000000000000000000 ) ) ;
#136 = EDGE_LOOP ( 'NONE', ( #197, #146, #270, #248 ) ) ;
#137 = DIRECTION ( 'NONE',  ( -0.0000000000000000000, -0.0000000000000000000, -1.000000000000000000 ) ) ;
#138 = CARTESIAN_POINT ( 'NONE',  ( 0.0000000000000000000, 0.0000000000000000000, -1.574800000000000200 ) ) ;
#139 = AXIS2_PLACEMENT_3D ( 'NONE', #7, #310, #308 ) ;
#140 = PRESENTATION_LAYER_ASSIGNMENT (  '', '', ( #68 ) ) ;
#141 = ORIENTED_EDGE ( 'NONE', *, *, #192, .F. ) ;
#142 = VERTEX_POINT ( 'NONE', #82 ) ;
#143 = CARTESIAN_POINT ( 'NONE',  ( 0.6196999999999999200, 0.0000000000000000000, 0.0000000000000000000 ) ) ;
#144 = ORIENTED_EDGE ( 'NONE', *, *, #286, .T. ) ;
#145 = CIRCLE ( 'NONE', #63, 0.6196999999999999200 ) ;
#146 = ORIENTED_EDGE ( 'NONE', *, *, #209, .T. ) ;
#147 = ORIENTED_EDGE ( 'NONE', *, *, #269, .F. ) ;
#148 = DIRECTION ( 'NONE',  ( 1.000000000000000000, 0.0000000000000000000, 0.0000000000000000000 ) ) ;
#149 = DIRECTION ( 'NONE',  ( 0.0000000000000000000, 0.0000000000000000000, 1.000000000000000000 ) ) ;
#150 = ORIENTED_EDGE ( 'NONE', *, *, #287, .T. ) ;
#151 = CARTESIAN_POINT ( 'NONE',  ( 0.4932000000000000300, 0.0000000000000000000, 0.0000000000000000000 ) ) ;
#152 =( GEOMETRIC_REPRESENTATION_CONTEXT ( 3 ) GLOBAL_UNCERTAINTY_ASSIGNED_CONTEXT ( ( #187 ) ) GLOBAL_UNIT_ASSIGNED_CONTEXT ( ( #160, #171, #46 ) ) REPRESENTATION_CONTEXT ( 'NONE', 'WORKASPACE' ) );
#153 = DIRECTION ( 'NONE',  ( -0.0000000000000000000, -0.0000000000000000000, -1.000000000000000000 ) ) ;
#154 = CARTESIAN_POINT ( 'NONE',  ( 0.0000000000000000000, 0.0000000000000000000, -0.07000000000000007600 ) ) ;
#155 = FACE_OUTER_BOUND ( 'NONE', #247, .T. ) ;
#156 = ADVANCED_FACE ( 'NONE', ( #124 ), #116, .F. ) ;
#157 = FACE_OUTER_BOUND ( 'NONE', #208, .T. ) ;
#158 = DIRECTION ( 'NONE',  ( 1.000000000000000000, 0.0000000000000000000, 0.0000000000000000000 ) ) ;
#159 = DIRECTION ( 'NONE',  ( 0.0000000000000000000, 0.0000000000000000000, 1.000000000000000000 ) ) ;
#160 =( CONVERSION_BASED_UNIT ( 'INCH', #185 ) LENGTH_UNIT ( ) NAMED_UNIT ( #89 ) );
#161 = MECHANICAL_DESIGN_GEOMETRIC_PRESENTATION_REPRESENTATION (  '', ( #174 ), #152 ) ;
#162 = DIRECTION ( 'NONE',  ( 1.000000000000000000, 0.0000000000000000000, 0.0000000000000000000 ) ) ;
#163 = LINE ( 'NONE', #15, #111 ) ;
#164 = FACE_OUTER_BOUND ( 'NONE', #214, .T. ) ;
#165 = MECHANICAL_DESIGN_GEOMETRIC_PRESENTATION_REPRESENTATION (  '', ( #68 ), #182 ) ;
#166 = DIRECTION ( 'NONE',  ( 0.0000000000000000000, 0.0000000000000000000, 1.000000000000000000 ) ) ;
#167 = FACE_BOUND ( 'NONE', #268, .T. ) ;
#168 = FACE_OUTER_BOUND ( 'NONE', #211, .T. ) ;
#169 = PRODUCT_DEFINITION_SHAPE ( 'NONE', 'NONE',  #265 ) ;
#170 = PRESENTATION_LAYER_ASSIGNMENT (  '', '', ( #174 ) ) ;
#171 =( NAMED_UNIT ( * ) PLANE_ANGLE_UNIT ( ) SI_UNIT ( $, .RADIAN. ) );
#172 = PRESENTATION_STYLE_ASSIGNMENT (( #181 ) ) ;
#173 = CARTESIAN_POINT ( 'NONE',  ( 0.0000000000000000000, 0.0000000000000000000, -1.504799999999999900 ) ) ;
#174 = STYLED_ITEM ( 'NONE', ( #22 ), #1 ) ;
#175 =( NAMED_UNIT ( * ) SI_UNIT ( $, .STERADIAN. ) SOLID_ANGLE_UNIT ( ) );
#176 =( NAMED_UNIT ( * ) PLANE_ANGLE_UNIT ( ) SI_UNIT ( $, .RADIAN. ) );
#177 = CARTESIAN_POINT ( 'NONE',  ( 0.0000000000000000000, 0.0000000000000000000, -0.07000000000000007600 ) ) ;
#178 =( CONVERSION_BASED_UNIT ( 'INCH', #41 ) LENGTH_UNIT ( ) NAMED_UNIT ( #322 ) );
#179 =( LENGTH_UNIT ( ) NAMED_UNIT ( * ) SI_UNIT ( $, .METRE. ) );
#180 = EDGE_CURVE ( 'NONE', #142, #233, #117, .T. ) ;
#181 = SURFACE_STYLE_USAGE ( .BOTH. , #188 ) ;
#182 =( GEOMETRIC_REPRESENTATION_CONTEXT ( 3 ) GLOBAL_UNCERTAINTY_ASSIGNED_CONTEXT ( ( #318 ) ) GLOBAL_UNIT_ASSIGNED_CONTEXT ( ( #178, #176, #175 ) ) REPRESENTATION_CONTEXT ( 'NONE', 'WORKASPACE' ) );
#183 = SURFACE_STYLE_USAGE ( .BOTH. , #207 ) ;
#184 = CARTESIAN_POINT ( 'NONE',  ( -0.6196999999999999200, 8.017762594017722100E-017, -1.574800000000000200 ) ) ;
#185 = LENGTH_MEASURE_WITH_UNIT ( LENGTH_MEASURE( 0.02539999999999999900 ), #189 );
#186 = DIRECTION ( 'NONE',  ( 0.0000000000000000000, 0.0000000000000000000, 1.000000000000000000 ) ) ;
#187 = UNCERTAINTY_MEASURE_WITH_UNIT (LENGTH_MEASURE( 1.000000000000000100E-005 ), #160, 'distance_accuracy_value', 'NONE');
#188 = SURFACE_SIDE_STYLE ('',( #33 ) ) ;
#189 =( LENGTH_UNIT ( ) NAMED_UNIT ( * ) SI_UNIT ( $, .METRE. ) );
#190 = FILL_AREA_STYLE ('',( #191 ) ) ;
#191 = FILL_AREA_STYLE_COLOUR ( '', #129 ) ;
#192 = EDGE_CURVE ( 'NONE', #142, #257, #163, .T. ) ;
#193 = ORIENTED_EDGE ( 'NONE', *, *, #241, .F. ) ;
#194 = ORIENTED_EDGE ( 'NONE', *, *, #195, .F. ) ;
#195 = EDGE_CURVE ( 'NONE', #257, #223, #125, .T. ) ;
#196 = EDGE_LOOP ( 'NONE', ( #299, #134, #222, #193 ) ) ;
#197 = ORIENTED_EDGE ( 'NONE', *, *, #282, .F. ) ;
#198 = ORIENTED_EDGE ( 'NONE', *, *, #287, .F. ) ;
#199 = VERTEX_POINT ( 'NONE', #267 ) ;
#200 = EDGE_LOOP ( 'NONE', ( #226, #194 ) ) ;
#201 = EDGE_CURVE ( 'NONE', #233, #223, #105, .T. ) ;
#202 = EDGE_LOOP ( 'NONE', ( #47, #280, #256, #219 ) ) ;
#203 = ORIENTED_EDGE ( 'NONE', *, *, #201, .T. ) ;
#204 = ORIENTED_EDGE ( 'NONE', *, *, #301, .F. ) ;
#205 = APPLICATION_CONTEXT ( 'automotive_design' ) ;
#206 = VERTEX_POINT ( 'NONE', #19 ) ;
#207 = SURFACE_SIDE_STYLE ('',( #315 ) ) ;
#208 = EDGE_LOOP ( 'NONE', ( #141, #239, #203, #246 ) ) ;
#209 = EDGE_CURVE ( 'NONE', #273, #294, #101, .T. ) ;
#210 = ORIENTED_EDGE ( 'NONE', *, *, #218, .T. ) ;
#211 = EDGE_LOOP ( 'NONE', ( #210, #150 ) ) ;
#212 = ORIENTED_EDGE ( 'NONE', *, *, #192, .T. ) ;
#213 = EDGE_CURVE ( 'NONE', #285, #199, #110, .T. ) ;
#214 = EDGE_LOOP ( 'NONE', ( #221, #3, #266, #227 ) ) ;
#215 = VERTEX_POINT ( 'NONE', #184 ) ;
#216 = EDGE_LOOP ( 'NONE', ( #198, #240, #204, #271 ) ) ;
#217 = APPLICATION_PROTOCOL_DEFINITION ( 'draft international standard', 'automotive_design', 1998, #205 ) ;
#218 = EDGE_CURVE ( 'NONE', #206, #215, #145, .T. ) ;
#219 = ORIENTED_EDGE ( 'NONE', *, *, #209, .F. ) ;
#220 = ORIENTED_EDGE ( 'NONE', *, *, #180, .T. ) ;
#221 = ORIENTED_EDGE ( 'NONE', *, *, #301, .T. ) ;
#222 = ORIENTED_EDGE ( 'NONE', *, *, #264, .T. ) ;
#223 = VERTEX_POINT ( 'NONE', #151 ) ;
#224 = EDGE_CURVE ( 'NONE', #233, #142, #96, .T. ) ;
#225 = CARTESIAN_POINT ( 'NONE',  ( 0.0000000000000000000, 0.0000000000000000000, -1.574800000000000200 ) ) ;
#226 = ORIENTED_EDGE ( 'NONE', *, *, #251, .F. ) ;
#227 = ORIENTED_EDGE ( 'NONE', *, *, #255, .F. ) ;
#228 = DIRECTION ( 'NONE',  ( 1.000000000000000000, 0.0000000000000000000, 0.0000000000000000000 ) ) ;
#229 =( NAMED_UNIT ( * ) SI_UNIT ( $, .STERADIAN. ) SOLID_ANGLE_UNIT ( ) );
#230 = VERTEX_POINT ( 'NONE', #143 ) ;
#231 = PLANE ( 'NONE',  #131 ) ;
#232 = ORIENTED_EDGE ( 'NONE', *, *, #264, .F. ) ;
#233 = VERTEX_POINT ( 'NONE', #119 ) ;
#234 =( NAMED_UNIT ( * ) PLANE_ANGLE_UNIT ( ) SI_UNIT ( $, .RADIAN. ) );
#235 = DIRECTION ( 'NONE',  ( 0.0000000000000000000, 0.0000000000000000000, 1.000000000000000000 ) ) ;
#236 =( CONVERSION_BASED_UNIT ( 'INCH', #12 ) LENGTH_UNIT ( ) NAMED_UNIT ( #283 ) );
#237 = CARTESIAN_POINT ( 'NONE',  ( 0.0000000000000000000, 0.0000000000000000000, 0.0000000000000000000 ) ) ;
#238 =( LENGTH_UNIT ( ) NAMED_UNIT ( * ) SI_UNIT ( $, .METRE. ) );
#239 = ORIENTED_EDGE ( 'NONE', *, *, #224, .F. ) ;
#240 = ORIENTED_EDGE ( 'NONE', *, *, #292, .T. ) ;
#241 = EDGE_CURVE ( 'NONE', #34, #230, #98, .T. ) ;
#242 = DIRECTION ( 'NONE',  ( 0.0000000000000000000, 0.0000000000000000000, 1.000000000000000000 ) ) ;
#243 = AXIS2_PLACEMENT_3D ( 'NONE', #305, #149, #148 ) ;
#244 = DIRECTION ( 'NONE',  ( 1.000000000000000000, 0.0000000000000000000, 0.0000000000000000000 ) ) ;
#245 = ADVANCED_FACE ( 'NONE', ( #106 ), #92, .T. ) ;
#246 = ORIENTED_EDGE ( 'NONE', *, *, #251, .T. ) ;
#247 = EDGE_LOOP ( 'NONE', ( #62, #133 ) ) ;
#248 = ORIENTED_EDGE ( 'NONE', *, *, #213, .T. ) ;
#249 = ADVANCED_FACE ( 'NONE', ( #95 ), #87, .T. ) ;
#250 = CARTESIAN_POINT ( 'NONE',  ( 0.6896999999999998700, 0.0000000000000000000, -1.504799999999999900 ) ) ;
#251 = EDGE_CURVE ( 'NONE', #223, #257, #86, .T. ) ;
#252 = DIRECTION ( 'NONE',  ( 0.0000000000000000000, 0.0000000000000000000, 1.000000000000000000 ) ) ;
#253 = EDGE_LOOP ( 'NONE', ( #274, #144, #147, #232 ) ) ;
#254 = ORIENTED_EDGE ( 'NONE', *, *, #180, .F. ) ;
#255 = EDGE_CURVE ( 'NONE', #294, #285, #91, .T. ) ;
#256 = ORIENTED_EDGE ( 'NONE', *, *, #302, .T. ) ;
#257 = VERTEX_POINT ( 'NONE', #45 ) ;
#258 = FILL_AREA_STYLE ('',( #259 ) ) ;
#259 = FILL_AREA_STYLE_COLOUR ( '', #26 ) ;
#260 = ORIENTED_EDGE ( 'NONE', *, *, #224, .T. ) ;
#261 = CARTESIAN_POINT ( 'NONE',  ( 0.0000000000000000000, 0.0000000000000000000, -1.574800000000000200 ) ) ;
#262 = ORIENTED_EDGE ( 'NONE', *, *, #201, .F. ) ;
#263 = CARTESIAN_POINT ( 'NONE',  ( 0.4932000000000000300, 0.0000000000000000000, -1.574800000000000200 ) ) ;
#264 = EDGE_CURVE ( 'NONE', #285, #230, #80, .T. ) ;
#265 = PRODUCT_DEFINITION ( 'UNKNOWN', '', #284, #9 ) ;
#266 = ORIENTED_EDGE ( 'NONE', *, *, #275, .T. ) ;
#267 = CARTESIAN_POINT ( 'NONE',  ( -0.6896999999999998700, 8.446388973719294700E-017, -0.07000000000000007600 ) ) ;
#268 = EDGE_LOOP ( 'NONE', ( #260, #220 ) ) ;
#269 = EDGE_CURVE ( 'NONE', #230, #34, #75, .T. ) ;
#270 = ORIENTED_EDGE ( 'NONE', *, *, #255, .T. ) ;
#271 = ORIENTED_EDGE ( 'NONE', *, *, #302, .F. ) ;
#272 = DIRECTION ( 'NONE',  ( 0.0000000000000000000, 0.0000000000000000000, -1.000000000000000000 ) ) ;
#273 = VERTEX_POINT ( 'NONE', #42 ) ;
#274 = ORIENTED_EDGE ( 'NONE', *, *, #275, .F. ) ;
#275 = EDGE_CURVE ( 'NONE', #199, #285, #73, .T. ) ;
#276 = AXIS2_PLACEMENT_3D ( 'NONE', #325, #324, #323 ) ;
#277 = DIRECTION ( 'NONE',  ( 0.0000000000000000000, -1.000000000000000000, 0.0000000000000000000 ) ) ;
#278 = ADVANCED_FACE ( 'NONE', ( #72 ), #70, .T. ) ;
#279 = CARTESIAN_POINT ( 'NONE',  ( 0.6196999999999999200, 0.0000000000000000000, -1.504799999999999900 ) ) ;
#280 = ORIENTED_EDGE ( 'NONE', *, *, #218, .F. ) ;
#281 = DIRECTION ( 'NONE',  ( 0.0000000000000000000, 0.0000000000000000000, 1.000000000000000000 ) ) ;
#282 = EDGE_CURVE ( 'NONE', #273, #199, #69, .T. ) ;
#283 = DIMENSIONAL_EXPONENTS ( 1.000000000000000000, 0.0000000000000000000, 0.0000000000000000000, 0.0000000000000000000, 0.0000000000000000000, 0.0000000000000000000, 0.0000000000000000000 ) ;
#284 = PRODUCT_DEFINITION_FORMATION_WITH_SPECIFIED_SOURCE ( 'ANY', '', #13, .NOT_KNOWN. ) ;
#285 = VERTEX_POINT ( 'NONE', #306 ) ;
#286 = EDGE_CURVE ( 'NONE', #199, #34, #58, .T. ) ;
#287 = EDGE_CURVE ( 'NONE', #215, #206, #85, .T. ) ;
#288 = DIRECTION ( 'NONE',  ( 1.000000000000000000, 0.0000000000000000000, 0.0000000000000000000 ) ) ;
#289 = CARTESIAN_POINT ( 'NONE',  ( 0.0000000000000000000, 0.0000000000000000000, -1.574800000000000200 ) ) ;
#290 = CARTESIAN_POINT ( 'NONE',  ( -0.6896999999999998700, 8.446388973719294700E-017, -1.574800000000000200 ) ) ;
#291 = DIRECTION ( 'NONE',  ( -1.000000000000000000, 1.224646799147352500E-016, 0.0000000000000000000 ) ) ;
#292 = EDGE_CURVE ( 'NONE', #215, #273, #65, .T. ) ;
#293 = DIRECTION ( 'NONE',  ( 1.000000000000000000, 0.0000000000000000000, 0.0000000000000000000 ) ) ;
#294 = VERTEX_POINT ( 'NONE', #250 ) ;
#295 = PRODUCT_RELATED_PRODUCT_CATEGORY ( 'part', '', ( #13 ) ) ;
#296 = DIRECTION ( 'NONE',  ( 0.0000000000000000000, 0.0000000000000000000, 1.000000000000000000 ) ) ;
#297 = ADVANCED_FACE ( 'NONE', ( #57 ), #51, .T. ) ;
#298 = CARTESIAN_POINT ( 'NONE',  ( 0.0000000000000000000, 0.0000000000000000000, -1.504799999999999900 ) ) ;
#299 = ORIENTED_EDGE ( 'NONE', *, *, #286, .F. ) ;
#300 = DIRECTION ( 'NONE',  ( 0.0000000000000000000, 0.0000000000000000000, 1.000000000000000000 ) ) ;
#301 = EDGE_CURVE ( 'NONE', #294, #273, #44, .T. ) ;
#302 = EDGE_CURVE ( 'NONE', #206, #294, #40, .T. ) ;
#303 = DIRECTION ( 'NONE',  ( 1.000000000000000000, 0.0000000000000000000, -0.0000000000000000000 ) ) ;
#304 = CLOSED_SHELL ( 'NONE', ( #249, #278, #156, #29, #316, #5, #84, #121, #297, #245 ) ) ;
#305 = CARTESIAN_POINT ( 'NONE',  ( 0.0000000000000000000, 0.0000000000000000000, 0.0000000000000000000 ) ) ;
#306 = CARTESIAN_POINT ( 'NONE',  ( 0.6896999999999998700, 0.0000000000000000000, -0.07000000000000007600 ) ) ;
#307 = DIRECTION ( 'NONE',  ( 1.000000000000000000, 0.0000000000000000000, 0.0000000000000000000 ) ) ;
#308 = DIRECTION ( 'NONE',  ( 1.000000000000000000, 0.0000000000000000000, 0.0000000000000000000 ) ) ;
#309 = DIRECTION ( 'NONE',  ( -0.0000000000000000000, -0.0000000000000000000, -1.000000000000000000 ) ) ;
#310 = DIRECTION ( 'NONE',  ( 0.0000000000000000000, 0.0000000000000000000, 1.000000000000000000 ) ) ;
#311 = DIRECTION ( 'NONE',  ( 1.000000000000000000, 0.0000000000000000000, 0.0000000000000000000 ) ) ;
#312 = DIRECTION ( 'NONE',  ( -1.000000000000000000, 1.224646799147352500E-016, 0.0000000000000000000 ) ) ;
#313 = DIRECTION ( 'NONE',  ( 1.000000000000000000, 0.0000000000000000000, 0.0000000000000000000 ) ) ;
#314 = CARTESIAN_POINT ( 'NONE',  ( 0.0000000000000000000, 0.0000000000000000000, -0.07000000000000007600 ) ) ;
#315 = SURFACE_STYLE_FILL_AREA ( #258 ) ;
#316 = ADVANCED_FACE ( 'NONE', ( #61 ), #27, .T. ) ;
#317 = DIRECTION ( 'NONE',  ( 1.224646799147353200E-016, 1.000000000000000000, -0.0000000000000000000 ) ) ;
#318 = UNCERTAINTY_MEASURE_WITH_UNIT (LENGTH_MEASURE( 1.000000000000000100E-005 ), #178, 'distance_accuracy_value', 'NONE');
#319 = CARTESIAN_POINT ( 'NONE',  ( -0.6196999999999999200, 7.589136214316146900E-017, -1.504799999999999900 ) ) ;
#320 = DIRECTION ( 'NONE',  ( 0.0000000000000000000, 0.0000000000000000000, 1.000000000000000000 ) ) ;
#321 = AXIS2_PLACEMENT_3D ( 'NONE', #319, #317, #312 ) ;
#322 = DIMENSIONAL_EXPONENTS ( 1.000000000000000000, 0.0000000000000000000, 0.0000000000000000000, 0.0000000000000000000, 0.0000000000000000000, 0.0000000000000000000, 0.0000000000000000000 ) ;
#323 = DIRECTION ( 'NONE',  ( 1.000000000000000000, 0.0000000000000000000, 0.0000000000000000000 ) ) ;
#324 = DIRECTION ( 'NONE',  ( -0.0000000000000000000, -0.0000000000000000000, -1.000000000000000000 ) ) ;
#325 = CARTESIAN_POINT ( 'NONE',  ( 0.0000000000000000000, 0.0000000000000000000, -1.574800000000000200 ) ) ;
#326 = CARTESIAN_POINT ( 'NONE',  ( 0.0000000000000000000, 0.0000000000000000000, -1.504799999999999900 ) ) ;
#327 = AXIS2_PLACEMENT_3D ( 'NONE', #298, #296, #293 ) ;
ENDSEC;
END-ISO-10303-21;
