ISO-10303-21;
HEADER;
FILE_DESCRIPTION (( 'STEP AP214' ),
    '1' );
FILE_NAME ('L20TWMFDA.STEP',
    '2018-07-16T17:43:44',
    ( 'Patrick' ),
    ( '' ),
    'SwSTEP 2.0',
    'SolidWorks 2013',
    '' );
FILE_SCHEMA (( 'AUTOMOTIVE_DESIGN' ));
ENDSEC;

DATA;
#1 = DIRECTION ( 'NONE',  ( -0.0000000000000000000, -0.0000000000000000000, -1.000000000000000000 ) ) ;
#2 = STYLED_ITEM ( 'NONE', ( #8 ), #317 ) ;
#3 = SURFACE_SIDE_STYLE ('',( #147 ) ) ;
#4 = CARTESIAN_POINT ( 'NONE',  ( 0.0000000000000000000, 0.0000000000000000000, -1.181100000000000000 ) ) ;
#5 = FILL_AREA_STYLE ('',( #57 ) ) ;
#6 = PRODUCT_DEFINITION_SHAPE ( 'NONE', 'NONE',  #293 ) ;
#7 = ORIENTED_EDGE ( 'NONE', *, *, #297, .F. ) ;
#8 = PRESENTATION_STYLE_ASSIGNMENT (( #316 ) ) ;
#9 = ORIENTED_EDGE ( 'NONE', *, *, #265, .T. ) ;
#10 = EDGE_CURVE ( 'NONE', #200, #191, #185, .T. ) ;
#11 = ADVANCED_FACE ( 'NONE', ( #262 ), #177, .T. ) ;
#12 = ORIENTED_EDGE ( 'NONE', *, *, #272, .F. ) ;
#13 = ORIENTED_EDGE ( 'NONE', *, *, #291, .F. ) ;
#14 =( GEOMETRIC_REPRESENTATION_CONTEXT ( 3 ) GLOBAL_UNCERTAINTY_ASSIGNED_CONTEXT ( ( #36 ) ) GLOBAL_UNIT_ASSIGNED_CONTEXT ( ( #189, #188, #180 ) ) REPRESENTATION_CONTEXT ( 'NONE', 'WORKASPACE' ) );
#15 = ORIENTED_EDGE ( 'NONE', *, *, #277, .T. ) ;
#16 = ORIENTED_EDGE ( 'NONE', *, *, #249, .F. ) ;
#17 = VERTEX_POINT ( 'NONE', #105 ) ;
#18 = VERTEX_POINT ( 'NONE', #21 ) ;
#19 =( LENGTH_UNIT ( ) NAMED_UNIT ( * ) SI_UNIT ( $, .METRE. ) );
#20 = AXIS2_PLACEMENT_3D ( 'NONE', #236, #232, #220 ) ;
#21 = CARTESIAN_POINT ( 'NONE',  ( 0.5118500000000000300, 0.0000000000000000000, 0.0000000000000000000 ) ) ;
#22 = DIRECTION ( 'NONE',  ( 1.000000000000000000, 0.0000000000000000000, 0.0000000000000000000 ) ) ;
#23 = ORIENTED_EDGE ( 'NONE', *, *, #303, .T. ) ;
#24 = DIRECTION ( 'NONE',  ( -1.000000000000000000, 1.224646799147353000E-016, 0.0000000000000000000 ) ) ;
#25 = PLANE ( 'NONE',  #41 ) ;
#26 = AXIS2_PLACEMENT_3D ( 'NONE', #274, #269, #268 ) ;
#27 = DIRECTION ( 'NONE',  ( 1.224646799147353200E-016, 1.000000000000000000, -0.0000000000000000000 ) ) ;
#28 = ORIENTED_EDGE ( 'NONE', *, *, #272, .T. ) ;
#29 = CARTESIAN_POINT ( 'NONE',  ( -0.5118500000000000300, 6.268354641435727600E-017, -0.03999999999999998000 ) ) ;
#30 = DIRECTION ( 'NONE',  ( 0.0000000000000000000, 0.0000000000000000000, 1.000000000000000000 ) ) ;
#31 = CARTESIAN_POINT ( 'NONE',  ( 0.0000000000000000000, 0.0000000000000000000, -1.141100000000000000 ) ) ;
#32 = SURFACE_SIDE_STYLE ('',( #59 ) ) ;
#33 = ORIENTED_EDGE ( 'NONE', *, *, #299, .F. ) ;
#34 = AXIS2_PLACEMENT_3D ( 'NONE', #295, #294, #292 ) ;
#35 = DIRECTION ( 'NONE',  ( 1.000000000000000000, 0.0000000000000000000, 0.0000000000000000000 ) ) ;
#36 = UNCERTAINTY_MEASURE_WITH_UNIT (LENGTH_MEASURE( 1.000000000000000100E-005 ), #189, 'distance_accuracy_value', 'NONE');
#37 = LENGTH_MEASURE_WITH_UNIT ( LENGTH_MEASURE( 0.02539999999999999900 ), #206 );
#38 = VERTEX_POINT ( 'NONE', #62 ) ;
#39 = ADVANCED_FACE ( 'NONE', ( #168 ), #174, .T. ) ;
#40 = DIMENSIONAL_EXPONENTS ( 1.000000000000000000, 0.0000000000000000000, 0.0000000000000000000, 0.0000000000000000000, 0.0000000000000000000, 0.0000000000000000000, 0.0000000000000000000 ) ;
#41 = AXIS2_PLACEMENT_3D ( 'NONE', #176, #322, #320 ) ;
#42 = ORIENTED_EDGE ( 'NONE', *, *, #310, .T. ) ;
#43 = ORIENTED_EDGE ( 'NONE', *, *, #297, .T. ) ;
#44 = DIRECTION ( 'NONE',  ( -0.0000000000000000000, -0.0000000000000000000, -1.000000000000000000 ) ) ;
#45 = CARTESIAN_POINT ( 'NONE',  ( 0.0000000000000000000, 0.0000000000000000000, -0.03999999999999998000 ) ) ;
#46 = AXIS2_PLACEMENT_3D ( 'NONE', #315, #314, #308 ) ;
#47 = ORIENTED_EDGE ( 'NONE', *, *, #285, .T. ) ;
#48 = DIRECTION ( 'NONE',  ( 1.000000000000000000, 0.0000000000000000000, 0.0000000000000000000 ) ) ;
#49 = DIRECTION ( 'NONE',  ( 0.0000000000000000000, 0.0000000000000000000, 1.000000000000000000 ) ) ;
#50 = CARTESIAN_POINT ( 'NONE',  ( 0.0000000000000000000, 0.0000000000000000000, -1.181100000000000000 ) ) ;
#51 = FILL_AREA_STYLE ('',( #53 ) ) ;
#52 = DIRECTION ( 'NONE',  ( 0.0000000000000000000, 0.0000000000000000000, -1.000000000000000000 ) ) ;
#53 = FILL_AREA_STYLE_COLOUR ( '', #281 ) ;
#54 = ORIENTED_EDGE ( 'NONE', *, *, #259, .T. ) ;
#55 = DIRECTION ( 'NONE',  ( 0.0000000000000000000, -1.000000000000000000, 0.0000000000000000000 ) ) ;
#56 = CARTESIAN_POINT ( 'NONE',  ( 0.5118500000000000300, 0.0000000000000000000, -0.03999999999999998000 ) ) ;
#57 = FILL_AREA_STYLE_COLOUR ( '', #158 ) ;
#58 = CYLINDRICAL_SURFACE ( 'NONE', #273, 0.3947999999999999800 ) ;
#59 = SURFACE_STYLE_FILL_AREA ( #51 ) ;
#60 = AXIS2_PLACEMENT_3D ( 'NONE', #326, #325, #323 ) ;
#61 = DIRECTION ( 'NONE',  ( 0.0000000000000000000, 0.0000000000000000000, 1.000000000000000000 ) ) ;
#62 = CARTESIAN_POINT ( 'NONE',  ( -0.3947999999999999800, 4.834905563033749700E-017, -1.181100000000000000 ) ) ;
#63 = SHAPE_DEFINITION_REPRESENTATION ( #6, #317 ) ;
#64 = AXIS2_PLACEMENT_3D ( 'NONE', #304, #122, #22 ) ;
#65 = ADVANCED_FACE ( 'NONE', ( #166 ), #169, .T. ) ;
#66 = VECTOR ( 'NONE', #248, 39.37007874015748100 ) ;
#67 = CIRCLE ( 'NONE', #20, 0.5518500000000000600 ) ;
#68 = DIRECTION ( 'NONE',  ( 1.000000000000000000, 0.0000000000000000000, -0.0000000000000000000 ) ) ;
#69 = AXIS2_PLACEMENT_3D ( 'NONE', #50, #30, #48 ) ;
#70 = VECTOR ( 'NONE', #296, 39.37007874015748100 ) ;
#71 = CARTESIAN_POINT ( 'NONE',  ( 0.0000000000000000000, 0.0000000000000000000, -1.181100000000000000 ) ) ;
#72 = LINE ( 'NONE', #264, #66 ) ;
#73 = DIRECTION ( 'NONE',  ( 1.000000000000000000, 0.0000000000000000000, 0.0000000000000000000 ) ) ;
#74 = DIRECTION ( 'NONE',  ( -1.000000000000000000, 1.224646799147353000E-016, 0.0000000000000000000 ) ) ;
#75 = DIRECTION ( 'NONE',  ( 0.0000000000000000000, 0.0000000000000000000, 1.000000000000000000 ) ) ;
#76 = LINE ( 'NONE', #302, #70 ) ;
#77 = CIRCLE ( 'NONE', #26, 0.5118500000000000300 ) ;
#78 = CARTESIAN_POINT ( 'NONE',  ( 0.0000000000000000000, 0.0000000000000000000, 0.0000000000000000000 ) ) ;
#79 = VECTOR ( 'NONE', #319, 39.37007874015748100 ) ;
#80 = DIRECTION ( 'NONE',  ( 0.0000000000000000000, 0.0000000000000000000, 1.000000000000000000 ) ) ;
#81 = AXIS2_PLACEMENT_3D ( 'NONE', #4, #1, #324 ) ;
#82 = CARTESIAN_POINT ( 'NONE',  ( -0.5118500000000000300, 6.513284001265199000E-017, 0.0000000000000000000 ) ) ;
#83 = DIRECTION ( 'NONE',  ( 1.000000000000000000, 0.0000000000000000000, 0.0000000000000000000 ) ) ;
#84 = LINE ( 'NONE', #318, #79 ) ;
#85 = CIRCLE ( 'NONE', #46, 0.3947999999999999800 ) ;
#86 = CARTESIAN_POINT ( 'NONE',  ( 0.5118500000000000300, 0.0000000000000000000, -1.181100000000000000 ) ) ;
#87 = AXIS2_PLACEMENT_3D ( 'NONE', #187, #121, #74 ) ;
#88 = FACE_OUTER_BOUND ( 'NONE', #246, .T. ) ;
#89 = CIRCLE ( 'NONE', #34, 0.3947999999999999800 ) ;
#90 = FACE_BOUND ( 'NONE', #204, .T. ) ;
#91 = DIRECTION ( 'NONE',  ( 0.0000000000000000000, 0.0000000000000000000, 1.000000000000000000 ) ) ;
#92 = APPLICATION_CONTEXT ( 'automotive_design' ) ;
#93 = CIRCLE ( 'NONE', #60, 0.03999999999999998000 ) ;
#94 = CYLINDRICAL_SURFACE ( 'NONE', #69, 0.3947999999999999800 ) ;
#95 = AXIS2_PLACEMENT_3D ( 'NONE', #29, #27, #24 ) ;
#96 = CIRCLE ( 'NONE', #81, 0.5118500000000000300 ) ;
#97 = CIRCLE ( 'NONE', #64, 0.5518500000000000600 ) ;
#98 = FACE_OUTER_BOUND ( 'NONE', #218, .T. ) ;
#99 = PRODUCT ( 'L20TWMFDA', 'L20TWMFDA', '', ( #167 ) ) ;
#100 = AXIS2_PLACEMENT_3D ( 'NONE', #45, #44, #35 ) ;
#101 = CARTESIAN_POINT ( 'NONE',  ( 0.0000000000000000000, 0.0000000000000000000, -1.181100000000000000 ) ) ;
#102 = FACE_OUTER_BOUND ( 'NONE', #271, .T. ) ;
#103 = CIRCLE ( 'NONE', #95, 0.03999999999999998000 ) ;
#104 = UNCERTAINTY_MEASURE_WITH_UNIT (LENGTH_MEASURE( 1.000000000000000100E-005 ), #263, 'distance_accuracy_value', 'NONE');
#105 = CARTESIAN_POINT ( 'NONE',  ( -0.5118500000000000300, 6.513284001265199000E-017, -1.181100000000000000 ) ) ;
#106 = AXIS2_PLACEMENT_3D ( 'NONE', #56, #55, #52 ) ;
#107 = CIRCLE ( 'NONE', #100, 0.5518500000000000600 ) ;
#108 = CIRCLE ( 'NONE', #106, 0.04000000000000000100 ) ;
#109 = CARTESIAN_POINT ( 'NONE',  ( 0.0000000000000000000, 0.0000000000000000000, -1.141100000000000000 ) ) ;
#110 = CIRCLE ( 'NONE', #123, 0.3947999999999999800 ) ;
#111 = DIRECTION ( 'NONE',  ( 1.000000000000000000, 0.0000000000000000000, 0.0000000000000000000 ) ) ;
#112 = TOROIDAL_SURFACE ( 'NONE', #114, 0.5118500000000000300, 0.04000000000000000100 ) ;
#113 = DIRECTION ( 'NONE',  ( 1.000000000000000000, 0.0000000000000000000, 0.0000000000000000000 ) ) ;
#114 = AXIS2_PLACEMENT_3D ( 'NONE', #178, #140, #111 ) ;
#115 = DIRECTION ( 'NONE',  ( 0.0000000000000000000, 0.0000000000000000000, 1.000000000000000000 ) ) ;
#116 = DIRECTION ( 'NONE',  ( 0.0000000000000000000, 0.0000000000000000000, 1.000000000000000000 ) ) ;
#117 = CIRCLE ( 'NONE', #87, 0.03999999999999998000 ) ;
#118 = FACE_OUTER_BOUND ( 'NONE', #224, .T. ) ;
#119 = CYLINDRICAL_SURFACE ( 'NONE', #137, 0.5518500000000000600 ) ;
#120 = CARTESIAN_POINT ( 'NONE',  ( 0.0000000000000000000, 0.0000000000000000000, 0.0000000000000000000 ) ) ;
#121 = DIRECTION ( 'NONE',  ( 1.224646799147353200E-016, 1.000000000000000000, -0.0000000000000000000 ) ) ;
#122 = DIRECTION ( 'NONE',  ( 0.0000000000000000000, 0.0000000000000000000, 1.000000000000000000 ) ) ;
#123 = AXIS2_PLACEMENT_3D ( 'NONE', #78, #75, #73 ) ;
#124 = DIRECTION ( 'NONE',  ( 0.0000000000000000000, 0.0000000000000000000, 1.000000000000000000 ) ) ;
#125 = CIRCLE ( 'NONE', #134, 0.3947999999999999800 ) ;
#126 = CIRCLE ( 'NONE', #210, 0.5518500000000000600 ) ;
#127 = CARTESIAN_POINT ( 'NONE',  ( 0.0000000000000000000, 0.0000000000000000000, -0.03999999999999998000 ) ) ;
#128 = AXIS2_PLACEMENT_3D ( 'NONE', #120, #116, #113 ) ;
#129 = ADVANCED_FACE ( 'NONE', ( #159, #186 ), #327, .F. ) ;
#130 = DIMENSIONAL_EXPONENTS ( 1.000000000000000000, 0.0000000000000000000, 0.0000000000000000000, 0.0000000000000000000, 0.0000000000000000000, 0.0000000000000000000, 0.0000000000000000000 ) ;
#131 = DIRECTION ( 'NONE',  ( 0.0000000000000000000, 0.0000000000000000000, 1.000000000000000000 ) ) ;
#132 = DIRECTION ( 'NONE',  ( 1.000000000000000000, 0.0000000000000000000, 0.0000000000000000000 ) ) ;
#133 = DIRECTION ( 'NONE',  ( 0.0000000000000000000, 0.0000000000000000000, 1.000000000000000000 ) ) ;
#134 = AXIS2_PLACEMENT_3D ( 'NONE', #135, #133, #132 ) ;
#135 = CARTESIAN_POINT ( 'NONE',  ( 0.0000000000000000000, 0.0000000000000000000, -1.181100000000000000 ) ) ;
#136 = LENGTH_MEASURE_WITH_UNIT ( LENGTH_MEASURE( 0.02539999999999999900 ), #306 );
#137 = AXIS2_PLACEMENT_3D ( 'NONE', #231, #49, #237 ) ;
#138 = APPLICATION_PROTOCOL_DEFINITION ( 'draft international standard', 'automotive_design', 1998, #139 ) ;
#139 = APPLICATION_CONTEXT ( 'automotive_design' ) ;
#140 = DIRECTION ( 'NONE',  ( 0.0000000000000000000, 0.0000000000000000000, 1.000000000000000000 ) ) ;
#141 = DIRECTION ( 'NONE',  ( 1.000000000000000000, 0.0000000000000000000, 0.0000000000000000000 ) ) ;
#142 =( GEOMETRIC_REPRESENTATION_CONTEXT ( 3 ) GLOBAL_UNCERTAINTY_ASSIGNED_CONTEXT ( ( #104 ) ) GLOBAL_UNIT_ASSIGNED_CONTEXT ( ( #263, #261, #258 ) ) REPRESENTATION_CONTEXT ( 'NONE', 'WORKASPACE' ) );
#143 = DIRECTION ( 'NONE',  ( 1.000000000000000000, 0.0000000000000000000, 0.0000000000000000000 ) ) ;
#144 = DIRECTION ( 'NONE',  ( 1.000000000000000000, 0.0000000000000000000, 0.0000000000000000000 ) ) ;
#145 = PRESENTATION_STYLE_ASSIGNMENT (( #309 ) ) ;
#146 = APPLICATION_PROTOCOL_DEFINITION ( 'draft international standard', 'automotive_design', 1998, #92 ) ;
#147 = SURFACE_STYLE_FILL_AREA ( #5 ) ;
#148 = DIRECTION ( 'NONE',  ( -0.0000000000000000000, -0.0000000000000000000, -1.000000000000000000 ) ) ;
#149 = CARTESIAN_POINT ( 'NONE',  ( 0.0000000000000000000, 0.0000000000000000000, -1.181100000000000000 ) ) ;
#150 = MECHANICAL_DESIGN_GEOMETRIC_PRESENTATION_REPRESENTATION (  '', ( #165 ), #142 ) ;
#151 = CARTESIAN_POINT ( 'NONE',  ( -0.5518500000000000600, 6.758213361094669100E-017, -0.03999999999999998000 ) ) ;
#152 = CYLINDRICAL_SURFACE ( 'NONE', #179, 0.5518500000000000600 ) ;
#153 = CIRCLE ( 'NONE', #128, 0.5118500000000000300 ) ;
#154 = LENGTH_MEASURE_WITH_UNIT ( LENGTH_MEASURE( 0.02539999999999999900 ), #19 );
#155 = ADVANCED_FACE ( 'NONE', ( #161 ), #152, .T. ) ;
#156 = CARTESIAN_POINT ( 'NONE',  ( -0.5518500000000000600, 6.758213361094669100E-017, -1.141100000000000000 ) ) ;
#157 = FACE_OUTER_BOUND ( 'NONE', #203, .T. ) ;
#158 = COLOUR_RGB ( '',0.7921568627450980000, 0.8196078431372548800, 0.9333333333333333500 ) ;
#159 = FACE_OUTER_BOUND ( 'NONE', #199, .T. ) ;
#160 = PRESENTATION_LAYER_ASSIGNMENT (  '', '', ( #165 ) ) ;
#161 = FACE_OUTER_BOUND ( 'NONE', #234, .T. ) ;
#162 = CIRCLE ( 'NONE', #190, 0.5118500000000000300 ) ;
#163 = DIRECTION ( 'NONE',  ( 1.000000000000000000, 0.0000000000000000000, 0.0000000000000000000 ) ) ;
#164 = DIRECTION ( 'NONE',  ( 0.0000000000000000000, 0.0000000000000000000, 1.000000000000000000 ) ) ;
#165 = STYLED_ITEM ( 'NONE', ( #145 ), #175 ) ;
#166 = FACE_OUTER_BOUND ( 'NONE', #226, .T. ) ;
#167 = PRODUCT_CONTEXT ( 'NONE', #92, 'mechanical' ) ;
#168 = FACE_OUTER_BOUND ( 'NONE', #227, .T. ) ;
#169 = TOROIDAL_SURFACE ( 'NONE', #216, 0.5118500000000000300, 0.04000000000000000100 ) ;
#170 = CARTESIAN_POINT ( 'NONE',  ( 0.0000000000000000000, 0.0000000000000000000, -1.141100000000000000 ) ) ;
#171 = DIRECTION ( 'NONE',  ( 1.000000000000000000, 0.0000000000000000000, 0.0000000000000000000 ) ) ;
#172 = CARTESIAN_POINT ( 'NONE',  ( 0.5518500000000000600, 0.0000000000000000000, -1.181100000000000000 ) ) ;
#173 = DIRECTION ( 'NONE',  ( 0.0000000000000000000, 0.0000000000000000000, 1.000000000000000000 ) ) ;
#174 = TOROIDAL_SURFACE ( 'NONE', #221, 0.5118500000000000300, 0.04000000000000000100 ) ;
#175 = MANIFOLD_SOLID_BREP ( 'Fillet1', #283 ) ;
#176 = CARTESIAN_POINT ( 'NONE',  ( 0.0000000000000000000, 0.0000000000000000000, 0.0000000000000000000 ) ) ;
#177 = TOROIDAL_SURFACE ( 'NONE', #228, 0.5118500000000000300, 0.04000000000000000100 ) ;
#178 = CARTESIAN_POINT ( 'NONE',  ( 0.0000000000000000000, 0.0000000000000000000, -0.03999999999999998000 ) ) ;
#179 = AXIS2_PLACEMENT_3D ( 'NONE', #71, #61, #83 ) ;
#180 =( NAMED_UNIT ( * ) SI_UNIT ( $, .STERADIAN. ) SOLID_ANGLE_UNIT ( ) );
#181 = PRESENTATION_LAYER_ASSIGNMENT (  '', '', ( #2 ) ) ;
#182 = CARTESIAN_POINT ( 'NONE',  ( 0.3947999999999999800, 0.0000000000000000000, 0.0000000000000000000 ) ) ;
#183 = VECTOR ( 'NONE', #91, 39.37007874015748100 ) ;
#184 = CARTESIAN_POINT ( 'NONE',  ( 0.5518500000000000600, 0.0000000000000000000, -1.141100000000000000 ) ) ;
#185 = LINE ( 'NONE', #172, #183 ) ;
#186 = FACE_BOUND ( 'NONE', #230, .T. ) ;
#187 = CARTESIAN_POINT ( 'NONE',  ( -0.5118500000000000300, 6.268354641435727600E-017, -1.141100000000000000 ) ) ;
#188 =( NAMED_UNIT ( * ) PLANE_ANGLE_UNIT ( ) SI_UNIT ( $, .RADIAN. ) );
#189 =( CONVERSION_BASED_UNIT ( 'INCH', #37 ) LENGTH_UNIT ( ) NAMED_UNIT ( #40 ) );
#190 = AXIS2_PLACEMENT_3D ( 'NONE', #149, #148, #144 ) ;
#191 = VERTEX_POINT ( 'NONE', #239 ) ;
#192 = ORIENTED_EDGE ( 'NONE', *, *, #313, .F. ) ;
#193 = AXIS2_PLACEMENT_3D ( 'NONE', #101, #115, #68 ) ;
#194 = ORIENTED_EDGE ( 'NONE', *, *, #265, .F. ) ;
#195 = ADVANCED_FACE ( 'NONE', ( #157 ), #119, .T. ) ;
#196 = ORIENTED_EDGE ( 'NONE', *, *, #10, .T. ) ;
#197 = ORIENTED_EDGE ( 'NONE', *, *, #287, .F. ) ;
#198 = DIMENSIONAL_EXPONENTS ( 1.000000000000000000, 0.0000000000000000000, 0.0000000000000000000, 0.0000000000000000000, 0.0000000000000000000, 0.0000000000000000000, 0.0000000000000000000 ) ;
#199 = EDGE_LOOP ( 'NONE', ( #243, #47 ) ) ;
#200 = VERTEX_POINT ( 'NONE', #184 ) ;
#201 = EDGE_CURVE ( 'NONE', #255, #200, #126, .T. ) ;
#202 = MECHANICAL_DESIGN_GEOMETRIC_PRESENTATION_REPRESENTATION (  '', ( #2 ), #225 ) ;
#203 = EDGE_LOOP ( 'NONE', ( #278, #208, #196, #215 ) ) ;
#204 = EDGE_LOOP ( 'NONE', ( #222, #256 ) ) ;
#205 = EDGE_LOOP ( 'NONE', ( #245, #235, #13, #7 ) ) ;
#206 =( LENGTH_UNIT ( ) NAMED_UNIT ( * ) SI_UNIT ( $, .METRE. ) );
#207 = CARTESIAN_POINT ( 'NONE',  ( -0.3947999999999999800, 4.834905563033749700E-017, 0.0000000000000000000 ) ) ;
#208 = ORIENTED_EDGE ( 'NONE', *, *, #201, .T. ) ;
#209 = ORIENTED_EDGE ( 'NONE', *, *, #307, .T. ) ;
#210 = AXIS2_PLACEMENT_3D ( 'NONE', #170, #164, #163 ) ;
#211 = PRODUCT_DEFINITION_CONTEXT ( 'detailed design', #139, 'design' ) ;
#212 =( CONVERSION_BASED_UNIT ( 'INCH', #154 ) LENGTH_UNIT ( ) NAMED_UNIT ( #130 ) );
#213 = ORIENTED_EDGE ( 'NONE', *, *, #312, .T. ) ;
#214 = ORIENTED_EDGE ( 'NONE', *, *, #252, .T. ) ;
#215 = ORIENTED_EDGE ( 'NONE', *, *, #313, .T. ) ;
#216 = AXIS2_PLACEMENT_3D ( 'NONE', #127, #80, #141 ) ;
#217 = ORIENTED_EDGE ( 'NONE', *, *, #291, .T. ) ;
#218 = EDGE_LOOP ( 'NONE', ( #33, #270, #23, #219 ) ) ;
#219 = ORIENTED_EDGE ( 'NONE', *, *, #310, .F. ) ;
#220 = DIRECTION ( 'NONE',  ( 1.000000000000000000, 0.0000000000000000000, 0.0000000000000000000 ) ) ;
#221 = AXIS2_PLACEMENT_3D ( 'NONE', #109, #131, #289 ) ;
#222 = ORIENTED_EDGE ( 'NONE', *, *, #259, .F. ) ;
#223 = VERTEX_POINT ( 'NONE', #182 ) ;
#224 = EDGE_LOOP ( 'NONE', ( #12, #15, #284, #194 ) ) ;
#225 =( GEOMETRIC_REPRESENTATION_CONTEXT ( 3 ) GLOBAL_UNCERTAINTY_ASSIGNED_CONTEXT ( ( #286 ) ) GLOBAL_UNIT_ASSIGNED_CONTEXT ( ( #212, #290, #305 ) ) REPRESENTATION_CONTEXT ( 'NONE', 'WORKASPACE' ) );
#226 = EDGE_LOOP ( 'NONE', ( #229, #192, #9, #241 ) ) ;
#227 = EDGE_LOOP ( 'NONE', ( #197, #276, #43, #257 ) ) ;
#228 = AXIS2_PLACEMENT_3D ( 'NONE', #31, #124, #143 ) ;
#229 = ORIENTED_EDGE ( 'NONE', *, *, #277, .F. ) ;
#230 = EDGE_LOOP ( 'NONE', ( #251, #267 ) ) ;
#231 = CARTESIAN_POINT ( 'NONE',  ( 0.0000000000000000000, 0.0000000000000000000, -1.181100000000000000 ) ) ;
#232 = DIRECTION ( 'NONE',  ( -0.0000000000000000000, -0.0000000000000000000, -1.000000000000000000 ) ) ;
#233 = VERTEX_POINT ( 'NONE', #242 ) ;
#234 = EDGE_LOOP ( 'NONE', ( #217, #213, #28, #253 ) ) ;
#235 = ORIENTED_EDGE ( 'NONE', *, *, #287, .T. ) ;
#236 = CARTESIAN_POINT ( 'NONE',  ( 0.0000000000000000000, 0.0000000000000000000, -0.03999999999999998000 ) ) ;
#237 = DIRECTION ( 'NONE',  ( 1.000000000000000000, 0.0000000000000000000, 0.0000000000000000000 ) ) ;
#238 = CARTESIAN_POINT ( 'NONE',  ( 0.0000000000000000000, 0.0000000000000000000, -1.181100000000000000 ) ) ;
#239 = CARTESIAN_POINT ( 'NONE',  ( 0.5518500000000000600, 0.0000000000000000000, -0.03999999999999998000 ) ) ;
#240 = DIRECTION ( 'NONE',  ( 0.0000000000000000000, 0.0000000000000000000, 1.000000000000000000 ) ) ;
#241 = ORIENTED_EDGE ( 'NONE', *, *, #252, .F. ) ;
#242 = CARTESIAN_POINT ( 'NONE',  ( 0.3947999999999999800, 0.0000000000000000000, -1.181100000000000000 ) ) ;
#243 = ORIENTED_EDGE ( 'NONE', *, *, #244, .T. ) ;
#244 = EDGE_CURVE ( 'NONE', #260, #17, #162, .T. ) ;
#245 = ORIENTED_EDGE ( 'NONE', *, *, #285, .F. ) ;
#246 = EDGE_LOOP ( 'NONE', ( #280, #16, #42, #54 ) ) ;
#247 = VERTEX_POINT ( 'NONE', #207 ) ;
#248 = DIRECTION ( 'NONE',  ( 0.0000000000000000000, 0.0000000000000000000, 1.000000000000000000 ) ) ;
#249 = EDGE_CURVE ( 'NONE', #233, #38, #125, .T. ) ;
#250 = VERTEX_POINT ( 'NONE', #151 ) ;
#251 = ORIENTED_EDGE ( 'NONE', *, *, #249, .T. ) ;
#252 = EDGE_CURVE ( 'NONE', #266, #18, #153, .T. ) ;
#253 = ORIENTED_EDGE ( 'NONE', *, *, #10, .F. ) ;
#254 = ADVANCED_FACE ( 'NONE', ( #118 ), #112, .T. ) ;
#255 = VERTEX_POINT ( 'NONE', #156 ) ;
#256 = ORIENTED_EDGE ( 'NONE', *, *, #303, .F. ) ;
#257 = ORIENTED_EDGE ( 'NONE', *, *, #201, .F. ) ;
#258 =( NAMED_UNIT ( * ) SI_UNIT ( $, .STERADIAN. ) SOLID_ANGLE_UNIT ( ) );
#259 = EDGE_CURVE ( 'NONE', #223, #247, #110, .T. ) ;
#260 = VERTEX_POINT ( 'NONE', #86 ) ;
#261 =( NAMED_UNIT ( * ) PLANE_ANGLE_UNIT ( ) SI_UNIT ( $, .RADIAN. ) );
#262 = FACE_OUTER_BOUND ( 'NONE', #205, .T. ) ;
#263 =( CONVERSION_BASED_UNIT ( 'INCH', #136 ) LENGTH_UNIT ( ) NAMED_UNIT ( #198 ) );
#264 = CARTESIAN_POINT ( 'NONE',  ( -0.5518500000000000600, 6.758213361094669100E-017, -1.181100000000000000 ) ) ;
#265 = EDGE_CURVE ( 'NONE', #191, #18, #108, .T. ) ;
#266 = VERTEX_POINT ( 'NONE', #82 ) ;
#267 = ORIENTED_EDGE ( 'NONE', *, *, #299, .T. ) ;
#268 = DIRECTION ( 'NONE',  ( 1.000000000000000000, 0.0000000000000000000, 0.0000000000000000000 ) ) ;
#269 = DIRECTION ( 'NONE',  ( 0.0000000000000000000, 0.0000000000000000000, 1.000000000000000000 ) ) ;
#270 = ORIENTED_EDGE ( 'NONE', *, *, #300, .T. ) ;
#271 = EDGE_LOOP ( 'NONE', ( #209, #214 ) ) ;
#272 = EDGE_CURVE ( 'NONE', #250, #191, #107, .T. ) ;
#273 = AXIS2_PLACEMENT_3D ( 'NONE', #238, #240, #288 ) ;
#274 = CARTESIAN_POINT ( 'NONE',  ( 0.0000000000000000000, 0.0000000000000000000, 0.0000000000000000000 ) ) ;
#275 = CARTESIAN_POINT ( 'NONE',  ( 0.0000000000000000000, 0.0000000000000000000, 0.0000000000000000000 ) ) ;
#276 = ORIENTED_EDGE ( 'NONE', *, *, #244, .F. ) ;
#277 = EDGE_CURVE ( 'NONE', #250, #266, #103, .T. ) ;
#278 = ORIENTED_EDGE ( 'NONE', *, *, #312, .F. ) ;
#279 = AXIS2_PLACEMENT_3D ( 'NONE', #275, #173, #171 ) ;
#280 = ORIENTED_EDGE ( 'NONE', *, *, #300, .F. ) ;
#281 = COLOUR_RGB ( '',0.7921568627450980000, 0.8196078431372548800, 0.9333333333333333500 ) ;
#282 = ADVANCED_FACE ( 'NONE', ( #98 ), #94, .F. ) ;
#283 = CLOSED_SHELL ( 'NONE', ( #254, #11, #282, #155, #195, #129, #298, #321, #39, #65 ) ) ;
#284 = ORIENTED_EDGE ( 'NONE', *, *, #307, .F. ) ;
#285 = EDGE_CURVE ( 'NONE', #17, #260, #96, .T. ) ;
#286 = UNCERTAINTY_MEASURE_WITH_UNIT (LENGTH_MEASURE( 1.000000000000000100E-005 ), #212, 'distance_accuracy_value', 'NONE');
#287 = EDGE_CURVE ( 'NONE', #17, #255, #117, .T. ) ;
#288 = DIRECTION ( 'NONE',  ( 1.000000000000000000, 0.0000000000000000000, 0.0000000000000000000 ) ) ;
#289 = DIRECTION ( 'NONE',  ( 1.000000000000000000, 0.0000000000000000000, 0.0000000000000000000 ) ) ;
#290 =( NAMED_UNIT ( * ) PLANE_ANGLE_UNIT ( ) SI_UNIT ( $, .RADIAN. ) );
#291 = EDGE_CURVE ( 'NONE', #200, #255, #97, .T. ) ;
#292 = DIRECTION ( 'NONE',  ( 1.000000000000000000, 0.0000000000000000000, 0.0000000000000000000 ) ) ;
#293 = PRODUCT_DEFINITION ( 'UNKNOWN', '', #301, #211 ) ;
#294 = DIRECTION ( 'NONE',  ( 0.0000000000000000000, 0.0000000000000000000, 1.000000000000000000 ) ) ;
#295 = CARTESIAN_POINT ( 'NONE',  ( 0.0000000000000000000, 0.0000000000000000000, 0.0000000000000000000 ) ) ;
#296 = DIRECTION ( 'NONE',  ( 0.0000000000000000000, 0.0000000000000000000, 1.000000000000000000 ) ) ;
#297 = EDGE_CURVE ( 'NONE', #260, #200, #93, .T. ) ;
#298 = ADVANCED_FACE ( 'NONE', ( #102, #90 ), #25, .T. ) ;
#299 = EDGE_CURVE ( 'NONE', #38, #233, #85, .T. ) ;
#300 = EDGE_CURVE ( 'NONE', #38, #247, #84, .T. ) ;
#301 = PRODUCT_DEFINITION_FORMATION_WITH_SPECIFIED_SOURCE ( 'ANY', '', #99, .NOT_KNOWN. ) ;
#302 = CARTESIAN_POINT ( 'NONE',  ( 0.3947999999999999800, 0.0000000000000000000, -1.181100000000000000 ) ) ;
#303 = EDGE_CURVE ( 'NONE', #247, #223, #89, .T. ) ;
#304 = CARTESIAN_POINT ( 'NONE',  ( 0.0000000000000000000, 0.0000000000000000000, -1.141100000000000000 ) ) ;
#305 =( NAMED_UNIT ( * ) SI_UNIT ( $, .STERADIAN. ) SOLID_ANGLE_UNIT ( ) );
#306 =( LENGTH_UNIT ( ) NAMED_UNIT ( * ) SI_UNIT ( $, .METRE. ) );
#307 = EDGE_CURVE ( 'NONE', #18, #266, #77, .T. ) ;
#308 = DIRECTION ( 'NONE',  ( 1.000000000000000000, 0.0000000000000000000, 0.0000000000000000000 ) ) ;
#309 = SURFACE_STYLE_USAGE ( .BOTH. , #3 ) ;
#310 = EDGE_CURVE ( 'NONE', #233, #223, #76, .T. ) ;
#311 = PRODUCT_RELATED_PRODUCT_CATEGORY ( 'part', '', ( #99 ) ) ;
#312 = EDGE_CURVE ( 'NONE', #255, #250, #72, .T. ) ;
#313 = EDGE_CURVE ( 'NONE', #191, #250, #67, .T. ) ;
#314 = DIRECTION ( 'NONE',  ( 0.0000000000000000000, 0.0000000000000000000, 1.000000000000000000 ) ) ;
#315 = CARTESIAN_POINT ( 'NONE',  ( 0.0000000000000000000, 0.0000000000000000000, -1.181100000000000000 ) ) ;
#316 = SURFACE_STYLE_USAGE ( .BOTH. , #32 ) ;
#317 = ADVANCED_BREP_SHAPE_REPRESENTATION ( 'L20TWMFDA', ( #175, #279 ), #14 ) ;
#318 = CARTESIAN_POINT ( 'NONE',  ( -0.3947999999999999800, 4.834905563033749700E-017, -1.181100000000000000 ) ) ;
#319 = DIRECTION ( 'NONE',  ( 0.0000000000000000000, 0.0000000000000000000, 1.000000000000000000 ) ) ;
#320 = DIRECTION ( 'NONE',  ( 1.000000000000000000, 0.0000000000000000000, -0.0000000000000000000 ) ) ;
#321 = ADVANCED_FACE ( 'NONE', ( #88 ), #58, .F. ) ;
#322 = DIRECTION ( 'NONE',  ( 0.0000000000000000000, 0.0000000000000000000, 1.000000000000000000 ) ) ;
#323 = DIRECTION ( 'NONE',  ( 0.0000000000000000000, 0.0000000000000000000, -1.000000000000000000 ) ) ;
#324 = DIRECTION ( 'NONE',  ( 1.000000000000000000, 0.0000000000000000000, 0.0000000000000000000 ) ) ;
#325 = DIRECTION ( 'NONE',  ( 0.0000000000000000000, -1.000000000000000000, 0.0000000000000000000 ) ) ;
#326 = CARTESIAN_POINT ( 'NONE',  ( 0.5118500000000000300, 0.0000000000000000000, -1.141100000000000000 ) ) ;
#327 = PLANE ( 'NONE',  #193 ) ;
ENDSEC;
END-ISO-10303-21;
