ISO-10303-21;
HEADER;
FILE_DESCRIPTION (( 'STEP AP214' ),
    '1' );
FILE_NAME ('L16TWMFDA.STEP',
    '2018-07-16T17:43:20',
    ( 'Patrick' ),
    ( '' ),
    'SwSTEP 2.0',
    'SolidWorks 2013',
    '' );
FILE_SCHEMA (( 'AUTOMOTIVE_DESIGN' ));
ENDSEC;

DATA;
#1 = DIRECTION ( 'NONE',  ( 1.000000000000000000, 0.0000000000000000000, 0.0000000000000000000 ) ) ;
#2 =( GEOMETRIC_REPRESENTATION_CONTEXT ( 3 ) GLOBAL_UNCERTAINTY_ASSIGNED_CONTEXT ( ( #294 ) ) GLOBAL_UNIT_ASSIGNED_CONTEXT ( ( #287, #286, #285 ) ) REPRESENTATION_CONTEXT ( 'NONE', 'WORKASPACE' ) );
#3 = DIRECTION ( 'NONE',  ( 0.0000000000000000000, 0.0000000000000000000, 1.000000000000000000 ) ) ;
#4 = CARTESIAN_POINT ( 'NONE',  ( -0.4728999999999999900, 5.791354713167833200E-017, -1.141100000000000000 ) ) ;
#5 =( GEOMETRIC_REPRESENTATION_CONTEXT ( 3 ) GLOBAL_UNCERTAINTY_ASSIGNED_CONTEXT ( ( #181 ) ) GLOBAL_UNIT_ASSIGNED_CONTEXT ( ( #236, #234, #209 ) ) REPRESENTATION_CONTEXT ( 'NONE', 'WORKASPACE' ) );
#6 = CIRCLE ( 'NONE', #240, 0.4728999999999999900 ) ;
#7 = AXIS2_PLACEMENT_3D ( 'NONE', #78, #43, #29 ) ;
#8 = LENGTH_MEASURE_WITH_UNIT ( LENGTH_MEASURE( 0.02539999999999999900 ), #296 );
#9 = DIRECTION ( 'NONE',  ( 1.000000000000000000, 0.0000000000000000000, 0.0000000000000000000 ) ) ;
#10 = DIRECTION ( 'NONE',  ( 0.0000000000000000000, 0.0000000000000000000, 1.000000000000000000 ) ) ;
#11 = CARTESIAN_POINT ( 'NONE',  ( 0.0000000000000000000, 0.0000000000000000000, -0.03999999999999998000 ) ) ;
#12 = DIRECTION ( 'NONE',  ( 0.0000000000000000000, 0.0000000000000000000, 1.000000000000000000 ) ) ;
#13 = FILL_AREA_STYLE_COLOUR ( '', #57 ) ;
#14 = DIRECTION ( 'NONE',  ( 0.0000000000000000000, 0.0000000000000000000, 1.000000000000000000 ) ) ;
#15 =( GEOMETRIC_REPRESENTATION_CONTEXT ( 3 ) GLOBAL_UNCERTAINTY_ASSIGNED_CONTEXT ( ( #282 ) ) GLOBAL_UNIT_ASSIGNED_CONTEXT ( ( #313, #311, #310 ) ) REPRESENTATION_CONTEXT ( 'NONE', 'WORKASPACE' ) );
#16 = CARTESIAN_POINT ( 'NONE',  ( 0.0000000000000000000, 0.0000000000000000000, 0.0000000000000000000 ) ) ;
#17 = SHAPE_DEFINITION_REPRESENTATION ( #323, #256 ) ;
#18 = AXIS2_PLACEMENT_3D ( 'NONE', #309, #308, #301 ) ;
#19 = MECHANICAL_DESIGN_GEOMETRIC_PRESENTATION_REPRESENTATION (  '', ( #70 ), #15 ) ;
#20 = CARTESIAN_POINT ( 'NONE',  ( 0.4328999999999999500, 0.0000000000000000000, -1.181100000000000000 ) ) ;
#21 = SURFACE_STYLE_FILL_AREA ( #271 ) ;
#22 = DIRECTION ( 'NONE',  ( -0.0000000000000000000, -0.0000000000000000000, -1.000000000000000000 ) ) ;
#23 = ADVANCED_FACE ( 'NONE', ( #135 ), #272, .T. ) ;
#24 = DIRECTION ( 'NONE',  ( 0.0000000000000000000, 0.0000000000000000000, 1.000000000000000000 ) ) ;
#25 = DIRECTION ( 'NONE',  ( 1.000000000000000000, 0.0000000000000000000, 0.0000000000000000000 ) ) ;
#26 = CARTESIAN_POINT ( 'NONE',  ( 0.0000000000000000000, 0.0000000000000000000, 0.0000000000000000000 ) ) ;
#27 = FACE_BOUND ( 'NONE', #255, .T. ) ;
#28 = AXIS2_PLACEMENT_3D ( 'NONE', #259, #235, #233 ) ;
#29 = DIRECTION ( 'NONE',  ( 1.000000000000000000, 0.0000000000000000000, 0.0000000000000000000 ) ) ;
#30 = ADVANCED_FACE ( 'NONE', ( #128 ), #122, .F. ) ;
#31 = PRESENTATION_LAYER_ASSIGNMENT (  '', '', ( #70 ) ) ;
#32 = CARTESIAN_POINT ( 'NONE',  ( -0.3158500000000000200, 3.868046915106915100E-017, -1.181100000000000000 ) ) ;
#33 = CARTESIAN_POINT ( 'NONE',  ( 0.0000000000000000000, 0.0000000000000000000, -1.141100000000000000 ) ) ;
#34 = AXIS2_PLACEMENT_3D ( 'NONE', #35, #22, #1 ) ;
#35 = CARTESIAN_POINT ( 'NONE',  ( 0.0000000000000000000, 0.0000000000000000000, -0.03999999999999998000 ) ) ;
#36 = DIRECTION ( 'NONE',  ( -1.000000000000000000, 1.224646799147353000E-016, 0.0000000000000000000 ) ) ;
#37 = CARTESIAN_POINT ( 'NONE',  ( 0.0000000000000000000, 0.0000000000000000000, -1.141100000000000000 ) ) ;
#38 = LENGTH_MEASURE_WITH_UNIT ( LENGTH_MEASURE( 0.02539999999999999900 ), #315 );
#39 = DIRECTION ( 'NONE',  ( 1.224646799147353200E-016, 1.000000000000000000, -0.0000000000000000000 ) ) ;
#40 = AXIS2_PLACEMENT_3D ( 'NONE', #26, #45, #44 ) ;
#41 = CARTESIAN_POINT ( 'NONE',  ( -0.4328999999999999500, 5.301495993508891800E-017, -0.03999999999999998000 ) ) ;
#42 = DIRECTION ( 'NONE',  ( 0.0000000000000000000, 0.0000000000000000000, 1.000000000000000000 ) ) ;
#43 = DIRECTION ( 'NONE',  ( 0.0000000000000000000, 0.0000000000000000000, 1.000000000000000000 ) ) ;
#44 = DIRECTION ( 'NONE',  ( 1.000000000000000000, 0.0000000000000000000, 0.0000000000000000000 ) ) ;
#45 = DIRECTION ( 'NONE',  ( 0.0000000000000000000, 0.0000000000000000000, 1.000000000000000000 ) ) ;
#46 = PRESENTATION_STYLE_ASSIGNMENT (( #316 ) ) ;
#47 = CYLINDRICAL_SURFACE ( 'NONE', #48, 0.4728999999999999900 ) ;
#48 = AXIS2_PLACEMENT_3D ( 'NONE', #82, #232, #213 ) ;
#49 = DIRECTION ( 'NONE',  ( 0.0000000000000000000, 0.0000000000000000000, 1.000000000000000000 ) ) ;
#50 = CIRCLE ( 'NONE', #60, 0.03999999999999998000 ) ;
#51 = FACE_OUTER_BOUND ( 'NONE', #153, .T. ) ;
#52 = COLOUR_RGB ( '',0.7921568627450980000, 0.8196078431372548800, 0.9333333333333333500 ) ;
#53 = SURFACE_STYLE_FILL_AREA ( #321 ) ;
#54 = AXIS2_PLACEMENT_3D ( 'NONE', #326, #204, #203 ) ;
#55 = AXIS2_PLACEMENT_3D ( 'NONE', #99, #76, #152 ) ;
#56 = ADVANCED_FACE ( 'NONE', ( #132 ), #120, .F. ) ;
#57 = COLOUR_RGB ( '',0.7921568627450980000, 0.8196078431372548800, 0.9333333333333333500 ) ;
#58 = VECTOR ( 'NONE', #268, 39.37007874015748100 ) ;
#59 = DIRECTION ( 'NONE',  ( 0.0000000000000000000, 0.0000000000000000000, 1.000000000000000000 ) ) ;
#60 = AXIS2_PLACEMENT_3D ( 'NONE', #325, #324, #322 ) ;
#61 = LINE ( 'NONE', #228, #58 ) ;
#62 = CIRCLE ( 'NONE', #173, 0.4328999999999999500 ) ;
#63 = PRESENTATION_STYLE_ASSIGNMENT (( #247 ) ) ;
#64 = CARTESIAN_POINT ( 'NONE',  ( -0.4328999999999999500, 5.546425353338362500E-017, 0.0000000000000000000 ) ) ;
#65 = CARTESIAN_POINT ( 'NONE',  ( 0.0000000000000000000, 0.0000000000000000000, -0.03999999999999998000 ) ) ;
#66 = FACE_OUTER_BOUND ( 'NONE', #160, .T. ) ;
#67 = FACE_OUTER_BOUND ( 'NONE', #193, .T. ) ;
#68 = DIRECTION ( 'NONE',  ( 1.000000000000000000, 0.0000000000000000000, 0.0000000000000000000 ) ) ;
#69 = VECTOR ( 'NONE', #59, 39.37007874015748100 ) ;
#70 = STYLED_ITEM ( 'NONE', ( #46 ), #314 ) ;
#71 = DIRECTION ( 'NONE',  ( 0.0000000000000000000, 0.0000000000000000000, 1.000000000000000000 ) ) ;
#72 = CIRCLE ( 'NONE', #91, 0.4728999999999999900 ) ;
#73 = LINE ( 'NONE', #103, #69 ) ;
#74 = CARTESIAN_POINT ( 'NONE',  ( 0.0000000000000000000, 0.0000000000000000000, -1.141100000000000000 ) ) ;
#75 = PRODUCT_DEFINITION ( 'UNKNOWN', '', #95, #292 ) ;
#76 = DIRECTION ( 'NONE',  ( 0.0000000000000000000, 0.0000000000000000000, 1.000000000000000000 ) ) ;
#77 = AXIS2_PLACEMENT_3D ( 'NONE', #149, #113, #125 ) ;
#78 = CARTESIAN_POINT ( 'NONE',  ( 0.0000000000000000000, 0.0000000000000000000, -1.141100000000000000 ) ) ;
#79 = VECTOR ( 'NONE', #24, 39.37007874015748100 ) ;
#80 = FACE_BOUND ( 'NONE', #243, .T. ) ;
#81 = CIRCLE ( 'NONE', #208, 0.4328999999999999500 ) ;
#82 = CARTESIAN_POINT ( 'NONE',  ( 0.0000000000000000000, 0.0000000000000000000, -1.181100000000000000 ) ) ;
#83 = CIRCLE ( 'NONE', #215, 0.3158500000000000200 ) ;
#84 = CIRCLE ( 'NONE', #252, 0.03999999999999998000 ) ;
#85 = AXIS2_PLACEMENT_3D ( 'NONE', #147, #143, #161 ) ;
#86 = ADVANCED_FACE ( 'NONE', ( #127 ), #130, .T. ) ;
#87 = CYLINDRICAL_SURFACE ( 'NONE', #226, 0.4728999999999999900 ) ;
#88 = LINE ( 'NONE', #32, #79 ) ;
#89 = CARTESIAN_POINT ( 'NONE',  ( 0.4328999999999999500, 0.0000000000000000000, 0.0000000000000000000 ) ) ;
#90 = LINE ( 'NONE', #105, #102 ) ;
#91 = AXIS2_PLACEMENT_3D ( 'NONE', #37, #42, #25 ) ;
#92 = FACE_OUTER_BOUND ( 'NONE', #273, .T. ) ;
#93 = CIRCLE ( 'NONE', #293, 0.3158500000000000200 ) ;
#94 = LENGTH_MEASURE_WITH_UNIT ( LENGTH_MEASURE( 0.02539999999999999900 ), #241 );
#95 = PRODUCT_DEFINITION_FORMATION_WITH_SPECIFIED_SOURCE ( 'ANY', '', #123, .NOT_KNOWN. ) ;
#96 = AXIS2_PLACEMENT_3D ( 'NONE', #133, #242, #327 ) ;
#97 = CIRCLE ( 'NONE', #281, 0.04000000000000000100 ) ;
#98 = FACE_OUTER_BOUND ( 'NONE', #162, .T. ) ;
#99 = CARTESIAN_POINT ( 'NONE',  ( 0.0000000000000000000, 0.0000000000000000000, 0.0000000000000000000 ) ) ;
#100 = TOROIDAL_SURFACE ( 'NONE', #291, 0.4328999999999999500, 0.04000000000000000100 ) ;
#101 = CARTESIAN_POINT ( 'NONE',  ( 0.3158500000000000200, 0.0000000000000000000, -1.181100000000000000 ) ) ;
#102 = VECTOR ( 'NONE', #109, 39.37007874015748100 ) ;
#103 = CARTESIAN_POINT ( 'NONE',  ( -0.4728999999999999900, 5.791354713167833200E-017, -1.181100000000000000 ) ) ;
#104 = AXIS2_PLACEMENT_3D ( 'NONE', #299, #49, #303 ) ;
#105 = CARTESIAN_POINT ( 'NONE',  ( 0.3158500000000000200, 0.0000000000000000000, -1.181100000000000000 ) ) ;
#106 = TOROIDAL_SURFACE ( 'NONE', #7, 0.4328999999999999500, 0.04000000000000000100 ) ;
#107 = CIRCLE ( 'NONE', #40, 0.3158500000000000200 ) ;
#108 = CIRCLE ( 'NONE', #28, 0.03999999999999998000 ) ;
#109 = DIRECTION ( 'NONE',  ( 0.0000000000000000000, 0.0000000000000000000, 1.000000000000000000 ) ) ;
#110 = AXIS2_PLACEMENT_3D ( 'NONE', #138, #14, #264 ) ;
#111 = FACE_OUTER_BOUND ( 'NONE', #170, .T. ) ;
#112 = CIRCLE ( 'NONE', #55, 0.4328999999999999500 ) ;
#113 = DIRECTION ( 'NONE',  ( 0.0000000000000000000, 0.0000000000000000000, 1.000000000000000000 ) ) ;
#114 = CARTESIAN_POINT ( 'NONE',  ( 0.0000000000000000000, 0.0000000000000000000, -1.181100000000000000 ) ) ;
#115 = CIRCLE ( 'NONE', #77, 0.3158500000000000200 ) ;
#116 = PRODUCT_RELATED_PRODUCT_CATEGORY ( 'part', '', ( #123 ) ) ;
#117 = CIRCLE ( 'NONE', #34, 0.4728999999999999900 ) ;
#118 = AXIS2_PLACEMENT_3D ( 'NONE', #11, #3, #150 ) ;
#119 = CARTESIAN_POINT ( 'NONE',  ( -0.4728999999999999900, 5.791354713167833200E-017, -0.03999999999999998000 ) ) ;
#120 = CYLINDRICAL_SURFACE ( 'NONE', #96, 0.3158500000000000200 ) ;
#121 = CIRCLE ( 'NONE', #85, 0.4328999999999999500 ) ;
#122 = CYLINDRICAL_SURFACE ( 'NONE', #104, 0.3158500000000000200 ) ;
#123 = PRODUCT ( 'L16TWMFDA', 'L16TWMFDA', '', ( #183 ) ) ;
#124 = DIRECTION ( 'NONE',  ( 0.0000000000000000000, 0.0000000000000000000, -1.000000000000000000 ) ) ;
#125 = DIRECTION ( 'NONE',  ( 1.000000000000000000, 0.0000000000000000000, 0.0000000000000000000 ) ) ;
#126 = AXIS2_PLACEMENT_3D ( 'NONE', #65, #238, #155 ) ;
#127 = FACE_OUTER_BOUND ( 'NONE', #156, .T. ) ;
#128 = FACE_OUTER_BOUND ( 'NONE', #221, .T. ) ;
#129 = DIRECTION ( 'NONE',  ( 0.0000000000000000000, -1.000000000000000000, 0.0000000000000000000 ) ) ;
#130 = TOROIDAL_SURFACE ( 'NONE', #110, 0.4328999999999999500, 0.04000000000000000100 ) ;
#131 = CARTESIAN_POINT ( 'NONE',  ( 0.4328999999999999500, 0.0000000000000000000, -0.03999999999999998000 ) ) ;
#132 = FACE_OUTER_BOUND ( 'NONE', #166, .T. ) ;
#133 = CARTESIAN_POINT ( 'NONE',  ( 0.0000000000000000000, 0.0000000000000000000, -1.181100000000000000 ) ) ;
#134 = CIRCLE ( 'NONE', #126, 0.4728999999999999900 ) ;
#135 = FACE_OUTER_BOUND ( 'NONE', #154, .T. ) ;
#136 = EDGE_CURVE ( 'NONE', #237, #137, #134, .T. ) ;
#137 = VERTEX_POINT ( 'NONE', #119 ) ;
#138 = CARTESIAN_POINT ( 'NONE',  ( 0.0000000000000000000, 0.0000000000000000000, -0.03999999999999998000 ) ) ;
#139 = VERTEX_POINT ( 'NONE', #163 ) ;
#140 = ORIENTED_EDGE ( 'NONE', *, *, #277, .F. ) ;
#141 = EDGE_CURVE ( 'NONE', #196, #249, #121, .T. ) ;
#142 = DIRECTION ( 'NONE',  ( 1.000000000000000000, 0.0000000000000000000, 0.0000000000000000000 ) ) ;
#143 = DIRECTION ( 'NONE',  ( -0.0000000000000000000, -0.0000000000000000000, -1.000000000000000000 ) ) ;
#144 = ORIENTED_EDGE ( 'NONE', *, *, #165, .T. ) ;
#145 = DIRECTION ( 'NONE',  ( -0.0000000000000000000, -0.0000000000000000000, -1.000000000000000000 ) ) ;
#146 = ORIENTED_EDGE ( 'NONE', *, *, #187, .F. ) ;
#147 = CARTESIAN_POINT ( 'NONE',  ( 0.0000000000000000000, 0.0000000000000000000, -1.181100000000000000 ) ) ;
#148 = CARTESIAN_POINT ( 'NONE',  ( 0.0000000000000000000, 0.0000000000000000000, -1.181100000000000000 ) ) ;
#149 = CARTESIAN_POINT ( 'NONE',  ( 0.0000000000000000000, 0.0000000000000000000, -1.181100000000000000 ) ) ;
#150 = DIRECTION ( 'NONE',  ( 1.000000000000000000, 0.0000000000000000000, 0.0000000000000000000 ) ) ;
#151 = AXIS2_PLACEMENT_3D ( 'NONE', #295, #265, #246 ) ;
#152 = DIRECTION ( 'NONE',  ( 1.000000000000000000, 0.0000000000000000000, 0.0000000000000000000 ) ) ;
#153 = EDGE_LOOP ( 'NONE', ( #207, #144 ) ) ;
#154 = EDGE_LOOP ( 'NONE', ( #269, #212, #225, #158 ) ) ;
#155 = DIRECTION ( 'NONE',  ( 1.000000000000000000, 0.0000000000000000000, 0.0000000000000000000 ) ) ;
#156 = EDGE_LOOP ( 'NONE', ( #146, #250, #188, #186 ) ) ;
#157 = ORIENTED_EDGE ( 'NONE', *, *, #202, .F. ) ;
#158 = ORIENTED_EDGE ( 'NONE', *, *, #165, .F. ) ;
#159 = EDGE_CURVE ( 'NONE', #267, #139, #115, .T. ) ;
#160 = EDGE_LOOP ( 'NONE', ( #224, #197 ) ) ;
#161 = DIRECTION ( 'NONE',  ( 1.000000000000000000, 0.0000000000000000000, 0.0000000000000000000 ) ) ;
#162 = EDGE_LOOP ( 'NONE', ( #218, #258, #177, #211 ) ) ;
#163 = CARTESIAN_POINT ( 'NONE',  ( -0.3158500000000000200, 3.868046915106915100E-017, -1.181100000000000000 ) ) ;
#164 = CARTESIAN_POINT ( 'NONE',  ( 0.3158500000000000200, 0.0000000000000000000, 0.0000000000000000000 ) ) ;
#165 = EDGE_CURVE ( 'NONE', #179, #180, #112, .T. ) ;
#166 = EDGE_LOOP ( 'NONE', ( #200, #257, #216, #191 ) ) ;
#167 = VERTEX_POINT ( 'NONE', #262 ) ;
#168 = VERTEX_POINT ( 'NONE', #164 ) ;
#169 = DIRECTION ( 'NONE',  ( 1.000000000000000000, 0.0000000000000000000, 0.0000000000000000000 ) ) ;
#170 = EDGE_LOOP ( 'NONE', ( #210, #205, #171, #157 ) ) ;
#171 = ORIENTED_EDGE ( 'NONE', *, *, #266, .F. ) ;
#172 = CARTESIAN_POINT ( 'NONE',  ( -0.4328999999999999500, 5.546425353338362500E-017, -1.181100000000000000 ) ) ;
#173 = AXIS2_PLACEMENT_3D ( 'NONE', #148, #145, #142 ) ;
#174 = APPLICATION_PROTOCOL_DEFINITION ( 'draft international standard', 'automotive_design', 1998, #182 ) ;
#175 = DIRECTION ( 'NONE',  ( 1.000000000000000000, 0.0000000000000000000, 0.0000000000000000000 ) ) ;
#176 = DIRECTION ( 'NONE',  ( 0.0000000000000000000, 0.0000000000000000000, 1.000000000000000000 ) ) ;
#177 = ORIENTED_EDGE ( 'NONE', *, *, #202, .T. ) ;
#178 = CARTESIAN_POINT ( 'NONE',  ( 0.0000000000000000000, 0.0000000000000000000, -1.181100000000000000 ) ) ;
#179 = VERTEX_POINT ( 'NONE', #64 ) ;
#180 = VERTEX_POINT ( 'NONE', #89 ) ;
#181 = UNCERTAINTY_MEASURE_WITH_UNIT (LENGTH_MEASURE( 1.000000000000000100E-005 ), #236, 'distance_accuracy_value', 'NONE');
#182 = APPLICATION_CONTEXT ( 'automotive_design' ) ;
#183 = PRODUCT_CONTEXT ( 'NONE', #276, 'mechanical' ) ;
#184 = EDGE_CURVE ( 'NONE', #168, #167, #107, .T. ) ;
#185 = ORIENTED_EDGE ( 'NONE', *, *, #300, .F. ) ;
#186 = ORIENTED_EDGE ( 'NONE', *, *, #248, .F. ) ;
#187 = EDGE_CURVE ( 'NONE', #137, #237, #117, .T. ) ;
#188 = ORIENTED_EDGE ( 'NONE', *, *, #284, .F. ) ;
#189 = ADVANCED_FACE ( 'NONE', ( #111 ), #106, .T. ) ;
#190 = ORIENTED_EDGE ( 'NONE', *, *, #266, .T. ) ;
#191 = ORIENTED_EDGE ( 'NONE', *, *, #260, .F. ) ;
#192 = DIMENSIONAL_EXPONENTS ( 1.000000000000000000, 0.0000000000000000000, 0.0000000000000000000, 0.0000000000000000000, 0.0000000000000000000, 0.0000000000000000000, 0.0000000000000000000 ) ;
#193 = EDGE_LOOP ( 'NONE', ( #190, #201, #245, #185 ) ) ;
#194 = ORIENTED_EDGE ( 'NONE', *, *, #159, .T. ) ;
#195 = ORIENTED_EDGE ( 'NONE', *, *, #260, .T. ) ;
#196 = VERTEX_POINT ( 'NONE', #20 ) ;
#197 = ORIENTED_EDGE ( 'NONE', *, *, #297, .T. ) ;
#198 = PLANE ( 'NONE',  #18 ) ;
#199 = CARTESIAN_POINT ( 'NONE',  ( 0.4728999999999999900, 0.0000000000000000000, -0.03999999999999998000 ) ) ;
#200 = ORIENTED_EDGE ( 'NONE', *, *, #222, .F. ) ;
#201 = ORIENTED_EDGE ( 'NONE', *, *, #289, .T. ) ;
#202 = EDGE_CURVE ( 'NONE', #196, #244, #108, .T. ) ;
#203 = DIRECTION ( 'NONE',  ( 1.000000000000000000, 0.0000000000000000000, 0.0000000000000000000 ) ) ;
#204 = DIRECTION ( 'NONE',  ( 0.0000000000000000000, 0.0000000000000000000, 1.000000000000000000 ) ) ;
#205 = ORIENTED_EDGE ( 'NONE', *, *, #307, .T. ) ;
#206 = ORIENTED_EDGE ( 'NONE', *, *, #222, .T. ) ;
#207 = ORIENTED_EDGE ( 'NONE', *, *, #284, .T. ) ;
#208 = AXIS2_PLACEMENT_3D ( 'NONE', #302, #288, #298 ) ;
#209 =( NAMED_UNIT ( * ) SI_UNIT ( $, .STERADIAN. ) SOLID_ANGLE_UNIT ( ) );
#210 = ORIENTED_EDGE ( 'NONE', *, *, #297, .F. ) ;
#211 = ORIENTED_EDGE ( 'NONE', *, *, #305, .F. ) ;
#212 = ORIENTED_EDGE ( 'NONE', *, *, #136, .F. ) ;
#213 = DIRECTION ( 'NONE',  ( 1.000000000000000000, 0.0000000000000000000, 0.0000000000000000000 ) ) ;
#214 = DIRECTION ( 'NONE',  ( 0.0000000000000000000, 0.0000000000000000000, 1.000000000000000000 ) ) ;
#215 = AXIS2_PLACEMENT_3D ( 'NONE', #16, #10, #9 ) ;
#216 = ORIENTED_EDGE ( 'NONE', *, *, #277, .T. ) ;
#217 = ORIENTED_EDGE ( 'NONE', *, *, #280, .F. ) ;
#218 = ORIENTED_EDGE ( 'NONE', *, *, #307, .F. ) ;
#219 = ADVANCED_FACE ( 'NONE', ( #98 ), #100, .T. ) ;
#220 = VERTEX_POINT ( 'NONE', #4 ) ;
#221 = EDGE_LOOP ( 'NONE', ( #217, #253, #195, #239 ) ) ;
#222 = EDGE_CURVE ( 'NONE', #139, #267, #93, .T. ) ;
#223 = CARTESIAN_POINT ( 'NONE',  ( 0.4728999999999999900, 0.0000000000000000000, -1.141100000000000000 ) ) ;
#224 = ORIENTED_EDGE ( 'NONE', *, *, #141, .T. ) ;
#225 = ORIENTED_EDGE ( 'NONE', *, *, #248, .T. ) ;
#226 = AXIS2_PLACEMENT_3D ( 'NONE', #114, #214, #169 ) ;
#227 = DIRECTION ( 'NONE',  ( 1.000000000000000000, 0.0000000000000000000, 0.0000000000000000000 ) ) ;
#228 = CARTESIAN_POINT ( 'NONE',  ( 0.4728999999999999900, 0.0000000000000000000, -1.181100000000000000 ) ) ;
#229 = ORIENTED_EDGE ( 'NONE', *, *, #136, .T. ) ;
#230 = ORIENTED_EDGE ( 'NONE', *, *, #184, .F. ) ;
#231 = ORIENTED_EDGE ( 'NONE', *, *, #300, .T. ) ;
#232 = DIRECTION ( 'NONE',  ( 0.0000000000000000000, 0.0000000000000000000, 1.000000000000000000 ) ) ;
#233 = DIRECTION ( 'NONE',  ( 0.0000000000000000000, 0.0000000000000000000, -1.000000000000000000 ) ) ;
#234 =( NAMED_UNIT ( * ) PLANE_ANGLE_UNIT ( ) SI_UNIT ( $, .RADIAN. ) );
#235 = DIRECTION ( 'NONE',  ( 0.0000000000000000000, -1.000000000000000000, 0.0000000000000000000 ) ) ;
#236 =( CONVERSION_BASED_UNIT ( 'INCH', #94 ) LENGTH_UNIT ( ) NAMED_UNIT ( #192 ) );
#237 = VERTEX_POINT ( 'NONE', #199 ) ;
#238 = DIRECTION ( 'NONE',  ( -0.0000000000000000000, -0.0000000000000000000, -1.000000000000000000 ) ) ;
#239 = ORIENTED_EDGE ( 'NONE', *, *, #184, .T. ) ;
#240 = AXIS2_PLACEMENT_3D ( 'NONE', #74, #71, #68 ) ;
#241 =( LENGTH_UNIT ( ) NAMED_UNIT ( * ) SI_UNIT ( $, .METRE. ) );
#242 = DIRECTION ( 'NONE',  ( 0.0000000000000000000, 0.0000000000000000000, 1.000000000000000000 ) ) ;
#243 = EDGE_LOOP ( 'NONE', ( #194, #206 ) ) ;
#244 = VERTEX_POINT ( 'NONE', #223 ) ;
#245 = ORIENTED_EDGE ( 'NONE', *, *, #187, .T. ) ;
#246 = DIRECTION ( 'NONE',  ( 1.000000000000000000, 0.0000000000000000000, -0.0000000000000000000 ) ) ;
#247 = SURFACE_STYLE_USAGE ( .BOTH. , #270 ) ;
#248 = EDGE_CURVE ( 'NONE', #237, #180, #97, .T. ) ;
#249 = VERTEX_POINT ( 'NONE', #172 ) ;
#250 = ORIENTED_EDGE ( 'NONE', *, *, #274, .T. ) ;
#251 = ADVANCED_FACE ( 'NONE', ( #92 ), #87, .T. ) ;
#252 = AXIS2_PLACEMENT_3D ( 'NONE', #41, #39, #36 ) ;
#253 = ORIENTED_EDGE ( 'NONE', *, *, #159, .F. ) ;
#254 = DIMENSIONAL_EXPONENTS ( 1.000000000000000000, 0.0000000000000000000, 0.0000000000000000000, 0.0000000000000000000, 0.0000000000000000000, 0.0000000000000000000, 0.0000000000000000000 ) ;
#255 = EDGE_LOOP ( 'NONE', ( #230, #140 ) ) ;
#256 = ADVANCED_BREP_SHAPE_REPRESENTATION ( 'L16TWMFDA', ( #314, #54 ), #2 ) ;
#257 = ORIENTED_EDGE ( 'NONE', *, *, #280, .T. ) ;
#258 = ORIENTED_EDGE ( 'NONE', *, *, #141, .F. ) ;
#259 = CARTESIAN_POINT ( 'NONE',  ( 0.4328999999999999500, 0.0000000000000000000, -1.141100000000000000 ) ) ;
#260 = EDGE_CURVE ( 'NONE', #267, #168, #90, .T. ) ;
#261 = ORIENTED_EDGE ( 'NONE', *, *, #305, .T. ) ;
#262 = CARTESIAN_POINT ( 'NONE',  ( -0.3158500000000000200, 3.868046915106915100E-017, 0.0000000000000000000 ) ) ;
#263 = PLANE ( 'NONE',  #151 ) ;
#264 = DIRECTION ( 'NONE',  ( 1.000000000000000000, 0.0000000000000000000, 0.0000000000000000000 ) ) ;
#265 = DIRECTION ( 'NONE',  ( 0.0000000000000000000, 0.0000000000000000000, 1.000000000000000000 ) ) ;
#266 = EDGE_CURVE ( 'NONE', #244, #220, #6, .T. ) ;
#267 = VERTEX_POINT ( 'NONE', #101 ) ;
#268 = DIRECTION ( 'NONE',  ( 0.0000000000000000000, 0.0000000000000000000, 1.000000000000000000 ) ) ;
#269 = ORIENTED_EDGE ( 'NONE', *, *, #274, .F. ) ;
#270 = SURFACE_SIDE_STYLE ('',( #21 ) ) ;
#271 = FILL_AREA_STYLE ('',( #275 ) ) ;
#272 = TOROIDAL_SURFACE ( 'NONE', #118, 0.4328999999999999500, 0.04000000000000000100 ) ;
#273 = EDGE_LOOP ( 'NONE', ( #279, #261, #231, #229 ) ) ;
#274 = EDGE_CURVE ( 'NONE', #137, #179, #84, .T. ) ;
#275 = FILL_AREA_STYLE_COLOUR ( '', #52 ) ;
#276 = APPLICATION_CONTEXT ( 'automotive_design' ) ;
#277 = EDGE_CURVE ( 'NONE', #167, #168, #83, .T. ) ;
#278 = CLOSED_SHELL ( 'NONE', ( #86, #189, #56, #306, #251, #290, #318, #30, #219, #23 ) ) ;
#279 = ORIENTED_EDGE ( 'NONE', *, *, #289, .F. ) ;
#280 = EDGE_CURVE ( 'NONE', #139, #167, #88, .T. ) ;
#281 = AXIS2_PLACEMENT_3D ( 'NONE', #131, #129, #124 ) ;
#282 = UNCERTAINTY_MEASURE_WITH_UNIT (LENGTH_MEASURE( 1.000000000000000100E-005 ), #313, 'distance_accuracy_value', 'NONE');
#283 = APPLICATION_PROTOCOL_DEFINITION ( 'draft international standard', 'automotive_design', 1998, #276 ) ;
#284 = EDGE_CURVE ( 'NONE', #180, #179, #81, .T. ) ;
#285 =( NAMED_UNIT ( * ) SI_UNIT ( $, .STERADIAN. ) SOLID_ANGLE_UNIT ( ) );
#286 =( NAMED_UNIT ( * ) PLANE_ANGLE_UNIT ( ) SI_UNIT ( $, .RADIAN. ) );
#287 =( CONVERSION_BASED_UNIT ( 'INCH', #8 ) LENGTH_UNIT ( ) NAMED_UNIT ( #254 ) );
#288 = DIRECTION ( 'NONE',  ( 0.0000000000000000000, 0.0000000000000000000, 1.000000000000000000 ) ) ;
#289 = EDGE_CURVE ( 'NONE', #220, #137, #73, .T. ) ;
#290 = ADVANCED_FACE ( 'NONE', ( #66, #80 ), #263, .F. ) ;
#291 = AXIS2_PLACEMENT_3D ( 'NONE', #33, #12, #227 ) ;
#292 = PRODUCT_DEFINITION_CONTEXT ( 'detailed design', #182, 'design' ) ;
#293 = AXIS2_PLACEMENT_3D ( 'NONE', #178, #176, #175 ) ;
#294 = UNCERTAINTY_MEASURE_WITH_UNIT (LENGTH_MEASURE( 1.000000000000000100E-005 ), #287, 'distance_accuracy_value', 'NONE');
#295 = CARTESIAN_POINT ( 'NONE',  ( 0.0000000000000000000, 0.0000000000000000000, -1.181100000000000000 ) ) ;
#296 =( LENGTH_UNIT ( ) NAMED_UNIT ( * ) SI_UNIT ( $, .METRE. ) );
#297 = EDGE_CURVE ( 'NONE', #249, #196, #62, .T. ) ;
#298 = DIRECTION ( 'NONE',  ( 1.000000000000000000, 0.0000000000000000000, 0.0000000000000000000 ) ) ;
#299 = CARTESIAN_POINT ( 'NONE',  ( 0.0000000000000000000, 0.0000000000000000000, -1.181100000000000000 ) ) ;
#300 = EDGE_CURVE ( 'NONE', #244, #237, #61, .T. ) ;
#301 = DIRECTION ( 'NONE',  ( 1.000000000000000000, 0.0000000000000000000, -0.0000000000000000000 ) ) ;
#302 = CARTESIAN_POINT ( 'NONE',  ( 0.0000000000000000000, 0.0000000000000000000, 0.0000000000000000000 ) ) ;
#303 = DIRECTION ( 'NONE',  ( 1.000000000000000000, 0.0000000000000000000, 0.0000000000000000000 ) ) ;
#304 = STYLED_ITEM ( 'NONE', ( #63 ), #256 ) ;
#305 = EDGE_CURVE ( 'NONE', #220, #244, #72, .T. ) ;
#306 = ADVANCED_FACE ( 'NONE', ( #67 ), #47, .T. ) ;
#307 = EDGE_CURVE ( 'NONE', #249, #220, #50, .T. ) ;
#308 = DIRECTION ( 'NONE',  ( 0.0000000000000000000, 0.0000000000000000000, 1.000000000000000000 ) ) ;
#309 = CARTESIAN_POINT ( 'NONE',  ( 0.0000000000000000000, 0.0000000000000000000, 0.0000000000000000000 ) ) ;
#310 =( NAMED_UNIT ( * ) SI_UNIT ( $, .STERADIAN. ) SOLID_ANGLE_UNIT ( ) );
#311 =( NAMED_UNIT ( * ) PLANE_ANGLE_UNIT ( ) SI_UNIT ( $, .RADIAN. ) );
#312 = PRESENTATION_LAYER_ASSIGNMENT (  '', '', ( #304 ) ) ;
#313 =( CONVERSION_BASED_UNIT ( 'INCH', #38 ) LENGTH_UNIT ( ) NAMED_UNIT ( #319 ) );
#314 = MANIFOLD_SOLID_BREP ( 'Fillet1', #278 ) ;
#315 =( LENGTH_UNIT ( ) NAMED_UNIT ( * ) SI_UNIT ( $, .METRE. ) );
#316 = SURFACE_STYLE_USAGE ( .BOTH. , #317 ) ;
#317 = SURFACE_SIDE_STYLE ('',( #53 ) ) ;
#318 = ADVANCED_FACE ( 'NONE', ( #51, #27 ), #198, .T. ) ;
#319 = DIMENSIONAL_EXPONENTS ( 1.000000000000000000, 0.0000000000000000000, 0.0000000000000000000, 0.0000000000000000000, 0.0000000000000000000, 0.0000000000000000000, 0.0000000000000000000 ) ;
#320 = MECHANICAL_DESIGN_GEOMETRIC_PRESENTATION_REPRESENTATION (  '', ( #304 ), #5 ) ;
#321 = FILL_AREA_STYLE ('',( #13 ) ) ;
#322 = DIRECTION ( 'NONE',  ( -1.000000000000000000, 1.224646799147353000E-016, 0.0000000000000000000 ) ) ;
#323 = PRODUCT_DEFINITION_SHAPE ( 'NONE', 'NONE',  #75 ) ;
#324 = DIRECTION ( 'NONE',  ( 1.224646799147353200E-016, 1.000000000000000000, -0.0000000000000000000 ) ) ;
#325 = CARTESIAN_POINT ( 'NONE',  ( -0.4328999999999999500, 5.301495993508891800E-017, -1.141100000000000000 ) ) ;
#326 = CARTESIAN_POINT ( 'NONE',  ( 0.0000000000000000000, 0.0000000000000000000, 0.0000000000000000000 ) ) ;
#327 = DIRECTION ( 'NONE',  ( 1.000000000000000000, 0.0000000000000000000, 0.0000000000000000000 ) ) ;
ENDSEC;
END-ISO-10303-21;
