ISO-10303-21;
HEADER;
FILE_DESCRIPTION((''),'2;1');
FILE_NAME('','2001-09-27T14:54:12+00:00',('Andreas Norl\X\E9n'),(
   'PIAB AB'),'','SolidEdge','');
FILE_SCHEMA(('CONFIG_CONTROL_DESIGN'));
ENDSEC;
/* ISO 10303-21 file written by STEP Caselib, ProSTEP GmbH, Germany */
DATA;
#1=ADVANCED_BREP_SHAPE_REPRESENTATION('',(#91,#453),#457);
#2=APPLICATION_CONTEXT(
   'CONFIGURATION CONTROLLED 3D DESIGNS OF MECHANICAL PARTS AND 
ASSEMBLIES');
#3=APPLICATION_PROTOCOL_DEFINITION('INTERNATIONAL STANDARD',
   'config_control_design',1994,#2);
#4=MECHANICAL_CONTEXT('MECHANICAL_CONTEXT_NAME',#2,'mechanical');
#5=PRODUCT('','','PRODUCT_DESCRIPTION',(#4));
#6=PRODUCT_RELATED_PRODUCT_CATEGORY('detail',
   'PRODUCT_RELATED_PRODUCT_CATEGORY_DESCRIPTION',(#5));
#7=PERSON_AND_ORGANIZATION_ROLE('design_owner');
#8=CC_DESIGN_PERSON_AND_ORGANIZATION_ASSIGNMENT(#11,#7,(#5));
#9=PERSON('ID_41','PERSON_LAST_NAME','PERSON_FIRST_NAME',$,$,$);
#10=ORGANIZATION('ORGANIZATION_ID','ORGANIZATION_NAME',
   'ORGANIZATION_DESCRIPTION');
#11=PERSON_AND_ORGANIZATION(#9,#10);
#12=PRODUCT_DEFINITION_FORMATION_WITH_SPECIFIED_SOURCE(
   'PRODUCT_DEFINITION_FORMATION_ID',
   'PRODUCT_DEFINITION_FORMATION_DESCRIPTION',#5,.NOT_KNOWN.);
#13=PERSON_AND_ORGANIZATION_ROLE('creator');
#14=CC_DESIGN_PERSON_AND_ORGANIZATION_ASSIGNMENT(#17,#13,(#12));
#15=PERSON('ID_42','PERSON_LAST_NAME','PERSON_FIRST_NAME',$,$,$);
#16=ORGANIZATION('ORGANIZATION_ID','ORGANIZATION_NAME',
   'ORGANIZATION_DESCRIPTION');
#17=PERSON_AND_ORGANIZATION(#15,#16);
#18=PERSON_AND_ORGANIZATION_ROLE('part_supplier');
#19=CC_DESIGN_PERSON_AND_ORGANIZATION_ASSIGNMENT(#22,#18,(#12));
#20=PERSON('ID_43','PERSON_LAST_NAME','PERSON_FIRST_NAME',$,$,$);
#21=ORGANIZATION('ORGANIZATION_ID','ORGANIZATION_NAME',
   'ORGANIZATION_DESCRIPTION');
#22=PERSON_AND_ORGANIZATION(#20,#21);
#23=APPROVAL_STATUS('approved');
#24=APPROVAL(#23,'APPROVAL_LEVEL');
#25=CC_DESIGN_APPROVAL(#24,(#12));
#26=APPROVAL_ROLE('APPROVAL_ROLE');
#27=APPROVAL_PERSON_ORGANIZATION(#30,#24,#26);
#28=PERSON('ID_44','PERSON_LAST_NAME','PERSON_FIRST_NAME',$,$,$);
#29=ORGANIZATION('ORGANIZATION_ID','ORGANIZATION_NAME',
   'ORGANIZATION_DESCRIPTION');
#30=PERSON_AND_ORGANIZATION(#28,#29);
#31=APPROVAL_DATE_TIME(#35,#24);
#32=CALENDAR_DATE(1997,1,1);
#33=COORDINATED_UNIVERSAL_TIME_OFFSET(0,0,.AHEAD.);
#34=LOCAL_TIME(0,0,0.0E+000,#33);
#35=DATE_AND_TIME(#32,#34);
#36=SECURITY_CLASSIFICATION_LEVEL('classified');
#37=SECURITY_CLASSIFICATION('SECURITY_CLASSIFICATION_NAME',
   'SECURITY_CLASSIFICATION_PURPOSE',#36);
#38=CC_DESIGN_SECURITY_CLASSIFICATION(#37,(#12));
#39=APPROVAL_STATUS('approved');
#40=APPROVAL(#39,'APPROVAL_LEVEL');
#41=CC_DESIGN_APPROVAL(#40,(#37));
#42=APPROVAL_ROLE('APPROVAL_ROLE');
#43=APPROVAL_PERSON_ORGANIZATION(#46,#40,#42);
#44=PERSON('ID_45','PERSON_LAST_NAME','PERSON_FIRST_NAME',$,$,$);
#45=ORGANIZATION('ORGANIZATION_ID','ORGANIZATION_NAME',
   'ORGANIZATION_DESCRIPTION');
#46=PERSON_AND_ORGANIZATION(#44,#45);
#47=APPROVAL_DATE_TIME(#51,#40);
#48=CALENDAR_DATE(1997,1,1);
#49=COORDINATED_UNIVERSAL_TIME_OFFSET(0,0,.AHEAD.);
#50=LOCAL_TIME(0,0,0.0E+000,#49);
#51=DATE_AND_TIME(#48,#50);
#52=PERSON_AND_ORGANIZATION_ROLE('classification_officer');
#53=CC_DESIGN_PERSON_AND_ORGANIZATION_ASSIGNMENT(#56,#52,(#37));
#54=PERSON('ID_46','PERSON_LAST_NAME','PERSON_FIRST_NAME',$,$,$);
#55=ORGANIZATION('ORGANIZATION_ID','ORGANIZATION_NAME',
   'ORGANIZATION_DESCRIPTION');
#56=PERSON_AND_ORGANIZATION(#54,#55);
#57=DATE_TIME_ROLE('classification_date');
#58=CC_DESIGN_DATE_AND_TIME_ASSIGNMENT(#62,#57,(#37));
#59=CALENDAR_DATE(1997,1,1);
#60=COORDINATED_UNIVERSAL_TIME_OFFSET(0,0,.AHEAD.);
#61=LOCAL_TIME(0,0,0.0E+000,#60);
#62=DATE_AND_TIME(#59,#61);
#63=DESIGN_CONTEXT('DESIGN_CONTEXT_NAME',#2,'design');
#64=PRODUCT_DEFINITION('PRODUCT_DEFINITION_ID',
   'PRODUCT_DEFINITION_DESCRIPTION',#12,#63);
#65=PERSON_AND_ORGANIZATION_ROLE('creator');
#66=CC_DESIGN_PERSON_AND_ORGANIZATION_ASSIGNMENT(#69,#65,(#64));
#67=PERSON('ID_47','PERSON_LAST_NAME','PERSON_FIRST_NAME',$,$,$);
#68=ORGANIZATION('ORGANIZATION_ID','ORGANIZATION_NAME',
   'ORGANIZATION_DESCRIPTION');
#69=PERSON_AND_ORGANIZATION(#67,#68);
#70=DATE_TIME_ROLE('creation_date');
#71=CC_DESIGN_DATE_AND_TIME_ASSIGNMENT(#75,#70,(#64));
#72=CALENDAR_DATE(1997,1,1);
#73=COORDINATED_UNIVERSAL_TIME_OFFSET(0,0,.AHEAD.);
#74=LOCAL_TIME(0,0,0.0E+000,#73);
#75=DATE_AND_TIME(#72,#74);
#76=APPROVAL_STATUS('approved');
#77=APPROVAL(#76,'APPROVAL_LEVEL');
#78=CC_DESIGN_APPROVAL(#77,(#64));
#79=APPROVAL_ROLE('APPROVAL_ROLE');
#80=APPROVAL_PERSON_ORGANIZATION(#83,#77,#79);
#81=PERSON('ID_48','PERSON_LAST_NAME','PERSON_FIRST_NAME',$,$,$);
#82=ORGANIZATION('ORGANIZATION_ID','ORGANIZATION_NAME',
   'ORGANIZATION_DESCRIPTION');
#83=PERSON_AND_ORGANIZATION(#81,#82);
#84=APPROVAL_DATE_TIME(#88,#77);
#85=CALENDAR_DATE(1997,1,1);
#86=COORDINATED_UNIVERSAL_TIME_OFFSET(0,0,.AHEAD.);
#87=LOCAL_TIME(0,0,0.0E+000,#86);
#88=DATE_AND_TIME(#85,#87);
#89=PRODUCT_DEFINITION_SHAPE('PRODUCT_DEFINITION_SHAPE_NAME',
   'PRODUCT_DEFINITION_SHAPE_DESCRIPTION',#64);
#90=SHAPE_DEFINITION_REPRESENTATION(#89,#1);
#91=MANIFOLD_SOLID_BREP('',#92);
#92=CLOSED_SHELL('',(#93,#94,#95,#96,#97,#98,#99,#100,#101,#102,#103,
   #104,#105,#106,#107,#108,#109,#110));
#93=ADVANCED_FACE('',(#111,#112),#133,.T.);
#94=ADVANCED_FACE('',(#138,#139),#152,.T.);
#95=ADVANCED_FACE('',(#157,#158),#171,.T.);
#96=ADVANCED_FACE('',(#176,#177),#190,.T.);
#97=ADVANCED_FACE('',(#195,#196),#209,.T.);
#98=ADVANCED_FACE('',(#214,#215),#228,.T.);
#99=ADVANCED_FACE('',(#233,#234),#247,.T.);
#100=ADVANCED_FACE('',(#252,#253),#266,.F.);
#101=ADVANCED_FACE('',(#271,#272),#285,.T.);
#102=ADVANCED_FACE('',(#290,#291),#304,.F.);
#103=ADVANCED_FACE('',(#309,#310),#323,.F.);
#104=ADVANCED_FACE('',(#328,#329),#342,.T.);
#105=ADVANCED_FACE('',(#347,#348),#361,.T.);
#106=ADVANCED_FACE('',(#366,#367),#380,.T.);
#107=ADVANCED_FACE('',(#385,#386),#399,.T.);
#108=ADVANCED_FACE('',(#404,#405),#418,.T.);
#109=ADVANCED_FACE('',(#423,#424),#437,.T.);
#110=ADVANCED_FACE('',(#442,#443),#448,.T.);
#111=FACE_OUTER_BOUND('',#113,.T.);
#112=FACE_BOUND('',#114,.T.);
#113=EDGE_LOOP('',(#115));
#114=EDGE_LOOP('',(#124));
#115=ORIENTED_EDGE('',*,*,#116,.T.);
#116=EDGE_CURVE('',#122,#122,#117,.T.);
#117=CIRCLE('',#118,1.09999779999999E+000);
#118=AXIS2_PLACEMENT_3D('',#119,#120,#121);
#119=CARTESIAN_POINT('',(0.0E+000,0.0E+000,4.49999100000002E+000));
#120=DIRECTION('',(0.0E+000,0.0E+000,1.0E+000));
#121=DIRECTION('',(1.0E+000,0.0E+000,0.0E+000));
#122=VERTEX_POINT('',#123);
#123=CARTESIAN_POINT('',(1.09999779999999E+000,0.0E+000,
   4.49999100000002E+000));
#124=ORIENTED_EDGE('',*,*,#125,.F.);
#125=EDGE_CURVE('',#131,#131,#126,.T.);
#126=CIRCLE('',#127,1.73204734346728E+000);
#127=AXIS2_PLACEMENT_3D('',#128,#129,#130);
#128=CARTESIAN_POINT('',(0.0E+000,0.0E+000,4.49999100000001E+000));
#129=DIRECTION('',(0.0E+000,0.0E+000,1.0E+000));
#130=DIRECTION('',(1.0E+000,0.0E+000,0.0E+000));
#131=VERTEX_POINT('',#132);
#132=CARTESIAN_POINT('',(1.73204734346728E+000,0.0E+000,
   4.49999100000001E+000));
#133=PLANE('',#134);
#134=AXIS2_PLACEMENT_3D('',#135,#136,#137);
#135=CARTESIAN_POINT('',(1.73204734346728E+000,0.0E+000,
   4.49999100000002E+000));
#136=DIRECTION('',(0.0E+000,0.0E+000,-1.0E+000));
#137=DIRECTION('',(-1.0E+000,0.0E+000,0.0E+000));
#138=FACE_OUTER_BOUND('',#140,.T.);
#139=FACE_BOUND('',#141,.T.);
#140=EDGE_LOOP('',(#142));
#141=EDGE_LOOP('',(#151));
#142=ORIENTED_EDGE('',*,*,#143,.T.);
#143=EDGE_CURVE('',#149,#149,#144,.T.);
#144=CIRCLE('',#145,1.2999974E+000);
#145=AXIS2_PLACEMENT_3D('',#146,#147,#148);
#146=CARTESIAN_POINT('',(0.0E+000,0.0E+000,4.29999140000001E+000));
#147=DIRECTION('',(0.0E+000,0.0E+000,1.0E+000));
#148=DIRECTION('',(1.0E+000,0.0E+000,0.0E+000));
#149=VERTEX_POINT('',#150);
#150=CARTESIAN_POINT('',(1.2999974E+000,0.0E+000,4.29999140000001E+000))
   ;
#151=ORIENTED_EDGE('',*,*,#116,.F.);
#152=CONICAL_SURFACE('',#153,1.09999779999999E+000,7.85398163397468E-001
   );
#153=AXIS2_PLACEMENT_3D('',#154,#155,#156);
#154=CARTESIAN_POINT('',(0.0E+000,0.0E+000,4.49999100000002E+000));
#155=DIRECTION('',(0.0E+000,0.0E+000,-1.0E+000));
#156=DIRECTION('',(-1.0E+000,0.0E+000,0.0E+000));
#157=FACE_OUTER_BOUND('',#159,.T.);
#158=FACE_BOUND('',#160,.T.);
#159=EDGE_LOOP('',(#161));
#160=EDGE_LOOP('',(#170));
#161=ORIENTED_EDGE('',*,*,#162,.T.);
#162=EDGE_CURVE('',#168,#168,#163,.T.);
#163=CIRCLE('',#164,1.2999974E+000);
#164=AXIS2_PLACEMENT_3D('',#165,#166,#167);
#165=CARTESIAN_POINT('',(0.0E+000,0.0E+000,1.999996E+000));
#166=DIRECTION('',(0.0E+000,0.0E+000,1.0E+000));
#167=DIRECTION('',(1.0E+000,0.0E+000,0.0E+000));
#168=VERTEX_POINT('',#169);
#169=CARTESIAN_POINT('',(1.2999974E+000,0.0E+000,1.999996E+000));
#170=ORIENTED_EDGE('',*,*,#143,.F.);
#171=CYLINDRICAL_SURFACE('',#172,1.2999974E+000);
#172=AXIS2_PLACEMENT_3D('',#173,#174,#175);
#173=CARTESIAN_POINT('',(0.0E+000,0.0E+000,1.8E+001));
#174=DIRECTION('',(0.0E+000,0.0E+000,1.0E+000));
#175=DIRECTION('',(1.0E+000,0.0E+000,0.0E+000));
#176=FACE_OUTER_BOUND('',#178,.T.);
#177=FACE_BOUND('',#179,.T.);
#178=EDGE_LOOP('',(#180));
#179=EDGE_LOOP('',(#189));
#180=ORIENTED_EDGE('',*,*,#181,.T.);
#181=EDGE_CURVE('',#187,#187,#182,.T.);
#182=CIRCLE('',#183,1.5499969E+000);
#183=AXIS2_PLACEMENT_3D('',#184,#185,#186);
#184=CARTESIAN_POINT('',(0.0E+000,0.0E+000,1.999996E+000));
#185=DIRECTION('',(0.0E+000,0.0E+000,1.0E+000));
#186=DIRECTION('',(1.0E+000,0.0E+000,0.0E+000));
#187=VERTEX_POINT('',#188);
#188=CARTESIAN_POINT('',(1.5499969E+000,0.0E+000,1.999996E+000));
#189=ORIENTED_EDGE('',*,*,#162,.F.);
#190=PLANE('',#191);
#191=AXIS2_PLACEMENT_3D('',#192,#193,#194);
#192=CARTESIAN_POINT('',(1.2999974E+000,0.0E+000,1.999996E+000));
#193=DIRECTION('',(0.0E+000,0.0E+000,1.0E+000));
#194=DIRECTION('',(1.0E+000,0.0E+000,0.0E+000));
#195=FACE_OUTER_BOUND('',#197,.T.);
#196=FACE_BOUND('',#198,.T.);
#197=EDGE_LOOP('',(#199));
#198=EDGE_LOOP('',(#208));
#199=ORIENTED_EDGE('',*,*,#200,.T.);
#200=EDGE_CURVE('',#206,#206,#201,.T.);
#201=CIRCLE('',#202,1.5499969E+000);
#202=AXIS2_PLACEMENT_3D('',#203,#204,#205);
#203=CARTESIAN_POINT('',(0.0E+000,0.0E+000,4.99999000000001E-001));
#204=DIRECTION('',(0.0E+000,0.0E+000,1.0E+000));
#205=DIRECTION('',(1.0E+000,0.0E+000,0.0E+000));
#206=VERTEX_POINT('',#207);
#207=CARTESIAN_POINT('',(1.5499969E+000,0.0E+000,4.99999000000001E-001))
   ;
#208=ORIENTED_EDGE('',*,*,#181,.F.);
#209=CYLINDRICAL_SURFACE('',#210,1.5499969E+000);
#210=AXIS2_PLACEMENT_3D('',#211,#212,#213);
#211=CARTESIAN_POINT('',(0.0E+000,0.0E+000,1.8E+001));
#212=DIRECTION('',(0.0E+000,0.0E+000,1.0E+000));
#213=DIRECTION('',(1.0E+000,0.0E+000,0.0E+000));
#214=FACE_OUTER_BOUND('',#216,.T.);
#215=FACE_BOUND('',#217,.T.);
#216=EDGE_LOOP('',(#218));
#217=EDGE_LOOP('',(#227));
#218=ORIENTED_EDGE('',*,*,#219,.T.);
#219=EDGE_CURVE('',#225,#225,#220,.T.);
#220=CIRCLE('',#221,1.8999962E+000);
#221=AXIS2_PLACEMENT_3D('',#222,#223,#224);
#222=CARTESIAN_POINT('',(0.0E+000,0.0E+000,1.999996E-001));
#223=DIRECTION('',(0.0E+000,0.0E+000,1.0E+000));
#224=DIRECTION('',(1.0E+000,0.0E+000,0.0E+000));
#225=VERTEX_POINT('',#226);
#226=CARTESIAN_POINT('',(1.8999962E+000,0.0E+000,1.999996E-001));
#227=ORIENTED_EDGE('',*,*,#200,.F.);
#228=CONICAL_SURFACE('',#229,1.5499969E+000,8.62170054667226E-001);
#229=AXIS2_PLACEMENT_3D('',#230,#231,#232);
#230=CARTESIAN_POINT('',(0.0E+000,0.0E+000,4.99999000000001E-001));
#231=DIRECTION('',(0.0E+000,0.0E+000,-1.0E+000));
#232=DIRECTION('',(-1.0E+000,0.0E+000,0.0E+000));
#233=FACE_OUTER_BOUND('',#235,.T.);
#234=FACE_BOUND('',#236,.T.);
#235=EDGE_LOOP('',(#237));
#236=EDGE_LOOP('',(#246));
#237=ORIENTED_EDGE('',*,*,#238,.T.);
#238=EDGE_CURVE('',#244,#244,#239,.T.);
#239=CIRCLE('',#240,1.69999659999999E+000);
#240=AXIS2_PLACEMENT_3D('',#241,#242,#243);
#241=CARTESIAN_POINT('',(0.0E+000,0.0E+000,3.46944695195361E-015));
#242=DIRECTION('',(0.0E+000,0.0E+000,1.0E+000));
#243=DIRECTION('',(1.0E+000,0.0E+000,0.0E+000));
#244=VERTEX_POINT('',#245);
#245=CARTESIAN_POINT('',(1.69999659999999E+000,0.0E+000,
   3.46944695195361E-015));
#246=ORIENTED_EDGE('',*,*,#219,.F.);
#247=TOROIDAL_SURFACE('',#248,1.6999966E+000,1.99999599999999E-001);
#248=AXIS2_PLACEMENT_3D('',#249,#250,#251);
#249=CARTESIAN_POINT('',(0.0E+000,0.0E+000,1.999996E-001));
#250=DIRECTION('',(0.0E+000,0.0E+000,1.0E+000));
#251=DIRECTION('',(1.0E+000,0.0E+000,0.0E+000));
#252=FACE_OUTER_BOUND('',#254,.T.);
#253=FACE_BOUND('',#255,.T.);
#254=EDGE_LOOP('',(#256));
#255=EDGE_LOOP('',(#265));
#256=ORIENTED_EDGE('',*,*,#257,.T.);
#257=EDGE_CURVE('',#263,#263,#258,.T.);
#258=CIRCLE('',#259,1.16387094212606E+000);
#259=AXIS2_PLACEMENT_3D('',#260,#261,#262);
#260=CARTESIAN_POINT('',(0.0E+000,0.0E+000,2.499995E-001));
#261=DIRECTION('',(0.0E+000,0.0E+000,1.0E+000));
#262=DIRECTION('',(1.0E+000,0.0E+000,0.0E+000));
#263=VERTEX_POINT('',#264);
#264=CARTESIAN_POINT('',(1.16387094212606E+000,0.0E+000,2.499995E-001));
#265=ORIENTED_EDGE('',*,*,#238,.F.);
#266=CONICAL_SURFACE('',#267,1.69999659999999E+000,1.13446401379632E+000
   );
#267=AXIS2_PLACEMENT_3D('',#268,#269,#270);
#268=CARTESIAN_POINT('',(0.0E+000,0.0E+000,3.46944695195361E-015));
#269=DIRECTION('',(0.0E+000,0.0E+000,-1.0E+000));
#270=DIRECTION('',(-1.0E+000,0.0E+000,0.0E+000));
#271=FACE_OUTER_BOUND('',#273,.T.);
#272=FACE_BOUND('',#274,.T.);
#273=EDGE_LOOP('',(#275));
#274=EDGE_LOOP('',(#284));
#275=ORIENTED_EDGE('',*,*,#276,.T.);
#276=EDGE_CURVE('',#282,#282,#277,.T.);
#277=CIRCLE('',#278,3.49999300000008E-001);
#278=AXIS2_PLACEMENT_3D('',#279,#280,#281);
#279=CARTESIAN_POINT('',(0.0E+000,0.0E+000,2.499995E-001));
#280=DIRECTION('',(0.0E+000,0.0E+000,1.0E+000));
#281=DIRECTION('',(1.0E+000,0.0E+000,0.0E+000));
#282=VERTEX_POINT('',#283);
#283=CARTESIAN_POINT('',(3.49999300000008E-001,0.0E+000,2.499995E-001));
#284=ORIENTED_EDGE('',*,*,#257,.F.);
#285=PLANE('',#286);
#286=AXIS2_PLACEMENT_3D('',#287,#288,#289);
#287=CARTESIAN_POINT('',(3.49999300000008E-001,0.0E+000,
   2.49999500000002E-001));
#288=DIRECTION('',(0.0E+000,0.0E+000,-1.0E+000));
#289=DIRECTION('',(-1.0E+000,0.0E+000,0.0E+000));
#290=FACE_OUTER_BOUND('',#292,.T.);
#291=FACE_BOUND('',#293,.T.);
#292=EDGE_LOOP('',(#294));
#293=EDGE_LOOP('',(#303));
#294=ORIENTED_EDGE('',*,*,#295,.T.);
#295=EDGE_CURVE('',#301,#301,#296,.T.);
#296=CIRCLE('',#297,3.49999299999979E-001);
#297=AXIS2_PLACEMENT_3D('',#298,#299,#300);
#298=CARTESIAN_POINT('',(0.0E+000,0.0E+000,9.80001311712498E+000));
#299=DIRECTION('',(0.0E+000,0.0E+000,1.0E+000));
#300=DIRECTION('',(1.0E+000,0.0E+000,0.0E+000));
#301=VERTEX_POINT('',#302);
#302=CARTESIAN_POINT('',(3.49999299999979E-001,0.0E+000,
   9.80001311712498E+000));
#303=ORIENTED_EDGE('',*,*,#276,.F.);
#304=CYLINDRICAL_SURFACE('',#305,3.49999299999993E-001);
#305=AXIS2_PLACEMENT_3D('',#306,#307,#308);
#306=CARTESIAN_POINT('',(0.0E+000,0.0E+000,1.8E+001));
#307=DIRECTION('',(0.0E+000,0.0E+000,1.0E+000));
#308=DIRECTION('',(1.0E+000,0.0E+000,0.0E+000));
#309=FACE_OUTER_BOUND('',#311,.T.);
#310=FACE_BOUND('',#312,.T.);
#311=EDGE_LOOP('',(#313));
#312=EDGE_LOOP('',(#322));
#313=ORIENTED_EDGE('',*,*,#314,.T.);
#314=EDGE_CURVE('',#320,#320,#315,.T.);
#315=CIRCLE('',#316,5.49998899999977E-001);
#316=AXIS2_PLACEMENT_3D('',#317,#318,#319);
#317=CARTESIAN_POINT('',(0.0E+000,0.0E+000,1.0000012717125E+001));
#318=DIRECTION('',(0.0E+000,0.0E+000,1.0E+000));
#319=DIRECTION('',(1.0E+000,0.0E+000,0.0E+000));
#320=VERTEX_POINT('',#321);
#321=CARTESIAN_POINT('',(5.49998899999977E-001,0.0E+000,
   1.0000012717125E+001));
#322=ORIENTED_EDGE('',*,*,#295,.F.);
#323=CONICAL_SURFACE('',#324,3.49999299999979E-001,7.85398163397439E-001
   );
#324=AXIS2_PLACEMENT_3D('',#325,#326,#327);
#325=CARTESIAN_POINT('',(0.0E+000,0.0E+000,9.80001311712498E+000));
#326=DIRECTION('',(0.0E+000,0.0E+000,1.0E+000));
#327=DIRECTION('',(1.0E+000,0.0E+000,0.0E+000));
#328=FACE_OUTER_BOUND('',#330,.T.);
#329=FACE_BOUND('',#331,.T.);
#330=EDGE_LOOP('',(#332));
#331=EDGE_LOOP('',(#341));
#332=ORIENTED_EDGE('',*,*,#333,.T.);
#333=EDGE_CURVE('',#339,#339,#334,.T.);
#334=CIRCLE('',#335,1.06049787900001E+000);
#335=AXIS2_PLACEMENT_3D('',#336,#337,#338);
#336=CARTESIAN_POINT('',(0.0E+000,0.0E+000,1.0000012717125E+001));
#337=DIRECTION('',(0.0E+000,0.0E+000,1.0E+000));
#338=DIRECTION('',(1.0E+000,0.0E+000,0.0E+000));
#339=VERTEX_POINT('',#340);
#340=CARTESIAN_POINT('',(1.06049787900001E+000,0.0E+000,
   1.0000012717125E+001));
#341=ORIENTED_EDGE('',*,*,#314,.F.);
#342=PLANE('',#343);
#343=AXIS2_PLACEMENT_3D('',#344,#345,#346);
#344=CARTESIAN_POINT('',(5.49998899999977E-001,0.0E+000,
   1.0000012717125E+001));
#345=DIRECTION('',(0.0E+000,0.0E+000,1.0E+000));
#346=DIRECTION('',(1.0E+000,0.0E+000,0.0E+000));
#347=FACE_OUTER_BOUND('',#349,.T.);
#348=FACE_BOUND('',#350,.T.);
#349=EDGE_LOOP('',(#351));
#350=EDGE_LOOP('',(#360));
#351=ORIENTED_EDGE('',*,*,#352,.T.);
#352=EDGE_CURVE('',#358,#358,#353,.T.);
#353=CIRCLE('',#354,1.24999750000001E+000);
#354=AXIS2_PLACEMENT_3D('',#355,#356,#357);
#355=CARTESIAN_POINT('',(0.0E+000,0.0E+000,9.7898467788625E+000));
#356=DIRECTION('',(0.0E+000,0.0E+000,1.0E+000));
#357=DIRECTION('',(1.0E+000,0.0E+000,0.0E+000));
#358=VERTEX_POINT('',#359);
#359=CARTESIAN_POINT('',(1.24999750000001E+000,0.0E+000,
   9.7898467788625E+000));
#360=ORIENTED_EDGE('',*,*,#333,.F.);
#361=CONICAL_SURFACE('',#362,1.06049787900001E+000,7.33735149369385E-001
   );
#362=AXIS2_PLACEMENT_3D('',#363,#364,#365);
#363=CARTESIAN_POINT('',(0.0E+000,0.0E+000,1.0000012717125E+001));
#364=DIRECTION('',(0.0E+000,0.0E+000,-1.0E+000));
#365=DIRECTION('',(-1.0E+000,0.0E+000,0.0E+000));
#366=FACE_OUTER_BOUND('',#368,.T.);
#367=FACE_BOUND('',#369,.T.);
#368=EDGE_LOOP('',(#370));
#369=EDGE_LOOP('',(#379));
#370=ORIENTED_EDGE('',*,*,#371,.T.);
#371=EDGE_CURVE('',#377,#377,#372,.T.);
#372=CIRCLE('',#373,1.24999750000001E+000);
#373=AXIS2_PLACEMENT_3D('',#374,#375,#376);
#374=CARTESIAN_POINT('',(0.0E+000,0.0E+000,7.49998500000002E+000));
#375=DIRECTION('',(0.0E+000,0.0E+000,1.0E+000));
#376=DIRECTION('',(1.0E+000,0.0E+000,0.0E+000));
#377=VERTEX_POINT('',#378);
#378=CARTESIAN_POINT('',(1.24999750000001E+000,0.0E+000,
   7.49998500000002E+000));
#379=ORIENTED_EDGE('',*,*,#352,.F.);
#380=CYLINDRICAL_SURFACE('',#381,1.24999750000001E+000);
#381=AXIS2_PLACEMENT_3D('',#382,#383,#384);
#382=CARTESIAN_POINT('',(0.0E+000,0.0E+000,1.8E+001));
#383=DIRECTION('',(0.0E+000,0.0E+000,1.0E+000));
#384=DIRECTION('',(1.0E+000,0.0E+000,0.0E+000));
#385=FACE_OUTER_BOUND('',#387,.T.);
#386=FACE_BOUND('',#388,.T.);
#387=EDGE_LOOP('',(#389));
#388=EDGE_LOOP('',(#398));
#389=ORIENTED_EDGE('',*,*,#390,.T.);
#390=EDGE_CURVE('',#396,#396,#391,.T.);
#391=CIRCLE('',#392,1.7499965E+000);
#392=AXIS2_PLACEMENT_3D('',#393,#394,#395);
#393=CARTESIAN_POINT('',(0.0E+000,0.0E+000,6.99998600000002E+000));
#394=DIRECTION('',(0.0E+000,0.0E+000,1.0E+000));
#395=DIRECTION('',(1.0E+000,0.0E+000,0.0E+000));
#396=VERTEX_POINT('',#397);
#397=CARTESIAN_POINT('',(1.7499965E+000,0.0E+000,6.99998600000002E+000))
   ;
#398=ORIENTED_EDGE('',*,*,#371,.F.);
#399=TOROIDAL_SURFACE('',#400,1.7499965E+000,4.99999E-001);
#400=AXIS2_PLACEMENT_3D('',#401,#402,#403);
#401=CARTESIAN_POINT('',(0.0E+000,0.0E+000,7.49998500000002E+000));
#402=DIRECTION('',(0.0E+000,0.0E+000,1.0E+000));
#403=DIRECTION('',(1.0E+000,0.0E+000,0.0E+000));
#404=FACE_OUTER_BOUND('',#406,.T.);
#405=FACE_BOUND('',#407,.T.);
#406=EDGE_LOOP('',(#408));
#407=EDGE_LOOP('',(#417));
#408=ORIENTED_EDGE('',*,*,#409,.T.);
#409=EDGE_CURVE('',#415,#415,#410,.T.);
#410=CIRCLE('',#411,2.30939645795638E+000);
#411=AXIS2_PLACEMENT_3D('',#412,#413,#414);
#412=CARTESIAN_POINT('',(0.0E+000,0.0E+000,6.99998600000002E+000));
#413=DIRECTION('',(0.0E+000,0.0E+000,1.0E+000));
#414=DIRECTION('',(1.0E+000,0.0E+000,0.0E+000));
#415=VERTEX_POINT('',#416);
#416=CARTESIAN_POINT('',(2.30939645795638E+000,0.0E+000,
   6.99998600000002E+000));
#417=ORIENTED_EDGE('',*,*,#390,.F.);
#418=PLANE('',#419);
#419=AXIS2_PLACEMENT_3D('',#420,#421,#422);
#420=CARTESIAN_POINT('',(1.7499965E+000,0.0E+000,6.99998600000002E+000))
   ;
#421=DIRECTION('',(0.0E+000,0.0E+000,1.0E+000));
#422=DIRECTION('',(1.0E+000,0.0E+000,0.0E+000));
#423=FACE_OUTER_BOUND('',#425,.T.);
#424=FACE_BOUND('',#426,.T.);
#425=EDGE_LOOP('',(#427));
#426=EDGE_LOOP('',(#436));
#427=ORIENTED_EDGE('',*,*,#428,.T.);
#428=EDGE_CURVE('',#434,#434,#429,.T.);
#429=CIRCLE('',#430,2.30939645795637E+000);
#430=AXIS2_PLACEMENT_3D('',#431,#432,#433);
#431=CARTESIAN_POINT('',(0.0E+000,0.0E+000,4.79999040000002E+000));
#432=DIRECTION('',(0.0E+000,0.0E+000,1.0E+000));
#433=DIRECTION('',(1.0E+000,0.0E+000,0.0E+000));
#434=VERTEX_POINT('',#435);
#435=CARTESIAN_POINT('',(2.30939645795637E+000,0.0E+000,
   4.79999040000002E+000));
#436=ORIENTED_EDGE('',*,*,#409,.F.);
#437=CYLINDRICAL_SURFACE('',#438,2.30939645795637E+000);
#438=AXIS2_PLACEMENT_3D('',#439,#440,#441);
#439=CARTESIAN_POINT('',(0.0E+000,0.0E+000,1.8E+001));
#440=DIRECTION('',(0.0E+000,0.0E+000,1.0E+000));
#441=DIRECTION('',(1.0E+000,0.0E+000,0.0E+000));
#442=FACE_OUTER_BOUND('',#444,.T.);
#443=FACE_BOUND('',#445,.T.);
#444=EDGE_LOOP('',(#446));
#445=EDGE_LOOP('',(#447));
#446=ORIENTED_EDGE('',*,*,#125,.T.);
#447=ORIENTED_EDGE('',*,*,#428,.F.);
#448=TOROIDAL_SURFACE('',#449,1.73204734346728E+000,
   7.05554144444444E-001);
#449=AXIS2_PLACEMENT_3D('',#450,#451,#452);
#450=CARTESIAN_POINT('',(0.0E+000,0.0E+000,5.20554514444446E+000));
#451=DIRECTION('',(0.0E+000,0.0E+000,1.0E+000));
#452=DIRECTION('',(1.0E+000,0.0E+000,0.0E+000));
#453=AXIS2_PLACEMENT_3D('',#454,#455,#456);
#454=CARTESIAN_POINT('',(0.0E+000,0.0E+000,0.0E+000));
#455=DIRECTION('',(0.0E+000,0.0E+000,1.0E+003));
#456=DIRECTION('',(1.0E+003,0.0E+000,0.0E+000));
#457=(GEOMETRIC_REPRESENTATION_CONTEXT(3) 
   GLOBAL_UNCERTAINTY_ASSIGNED_CONTEXT((#458)) 
   GLOBAL_UNIT_ASSIGNED_CONTEXT((#460,#461,#462)) REPRESENTATION_CONTEXT
   ('',''));
#458=UNCERTAINTY_MEASURE_WITH_UNIT(LENGTH_MEASURE(1.0E-005),#460,'','');
#459=DIMENSIONAL_EXPONENTS(1.0E+000,0.0E+000,0.0E+000,0.0E+000,0.0E+000,
   0.0E+000,0.0E+000);
#460=(LENGTH_UNIT() NAMED_UNIT(*) SI_UNIT(.MILLI.,.METRE.));
#461=(NAMED_UNIT(*) PLANE_ANGLE_UNIT() SI_UNIT($,.RADIAN.));
#462=(NAMED_UNIT(*) SI_UNIT($,.STERADIAN.) SOLID_ANGLE_UNIT());
ENDSEC;
END-ISO-10303-21;
                
                  
               
                   
                    
     
                
