ISO-10303-21;
HEADER;
FILE_DESCRIPTION(('STEP AP214'),'1');
FILE_NAME('cctmp_B90D2423-CFB9-43E8-8834-93F4B8CADD2D_2021_4_23_8_12_27_411..stp','2021-04-23T06:12:27',('Mulco-Europe EWIV'),('CADClick - www.CADClick.com'),'Spatial InterOp 3D',' ','unknown authorization');
FILE_SCHEMA(('AUTOMOTIVE_DESIGN'));
ENDSEC;
DATA;
#1=MECHANICAL_DESIGN_GEOMETRIC_PRESENTATION_REPRESENTATION(' ',(#10,#11,#12,#13,#14,#15,#16,#17,#18,#19,#20,#21,#22,#23,#24,#25,#26,#27,#28),#6);
#2=PRODUCT_DEFINITION_CONTEXT('',#29,'design');
#3=APPLICATION_PROTOCOL_DEFINITION('INTERNATIONAL STANDARD','automotive_design',1994,#29);
#4=PRODUCT_CATEGORY_RELATIONSHIP('NONE','NONE',#30,#31);
#5=SHAPE_DEFINITION_REPRESENTATION(#32,#33);
#6= (GEOMETRIC_REPRESENTATION_CONTEXT(3)GLOBAL_UNCERTAINTY_ASSIGNED_CONTEXT((#36))GLOBAL_UNIT_ASSIGNED_CONTEXT((#38,#39,#40))REPRESENTATION_CONTEXT('NONE','WORKSPACE'));
#10=STYLED_ITEM('',(#42),#43);
#11=STYLED_ITEM('',(#44),#45);
#12=STYLED_ITEM('',(#46),#47);
#13=STYLED_ITEM('',(#48),#49);
#14=STYLED_ITEM('',(#50),#51);
#15=STYLED_ITEM('',(#52),#53);
#16=STYLED_ITEM('',(#54),#55);
#17=STYLED_ITEM('',(#56),#57);
#18=STYLED_ITEM('',(#58),#59);
#19=STYLED_ITEM('',(#60),#61);
#20=STYLED_ITEM('',(#62),#63);
#21=STYLED_ITEM('',(#64),#65);
#22=STYLED_ITEM('',(#66),#67);
#23=STYLED_ITEM('',(#68),#69);
#24=STYLED_ITEM('',(#70),#71);
#25=STYLED_ITEM('',(#72),#73);
#26=STYLED_ITEM('',(#74),#75);
#27=STYLED_ITEM('',(#76),#77);
#28=STYLED_ITEM('',(#78),#79);
#29=APPLICATION_CONTEXT(' ');
#30=PRODUCT_CATEGORY('part','NONE');
#31=PRODUCT_RELATED_PRODUCT_CATEGORY('detail',' ',(#80));
#32=PRODUCT_DEFINITION_SHAPE('NONE','NONE',#81);
#33=ADVANCED_BREP_SHAPE_REPRESENTATION('2021_04_23__08-12-27-395',(#79,#82),#6);
#36=UNCERTAINTY_MEASURE_WITH_UNIT(LENGTH_MEASURE(1.0E-006),#38,'','');
#38= (CONVERSION_BASED_UNIT('MILLIMETRE',#85)LENGTH_UNIT()NAMED_UNIT(#88));
#39= (NAMED_UNIT(#90)PLANE_ANGLE_UNIT()SI_UNIT($,.RADIAN.));
#40= (NAMED_UNIT(#90)SOLID_ANGLE_UNIT()SI_UNIT($,.STERADIAN.));
#42=PRESENTATION_STYLE_ASSIGNMENT((#96));
#43=ADVANCED_FACE('',(#97),#98,.T.);
#44=PRESENTATION_STYLE_ASSIGNMENT((#99));
#45=ADVANCED_FACE('',(#100),#101,.T.);
#46=PRESENTATION_STYLE_ASSIGNMENT((#102));
#47=ADVANCED_FACE('',(#103),#104,.F.);
#48=PRESENTATION_STYLE_ASSIGNMENT((#105));
#49=ADVANCED_FACE('',(#106),#107,.T.);
#50=PRESENTATION_STYLE_ASSIGNMENT((#108));
#51=ADVANCED_FACE('',(#109),#110,.T.);
#52=PRESENTATION_STYLE_ASSIGNMENT((#111));
#53=ADVANCED_FACE('',(#112),#113,.T.);
#54=PRESENTATION_STYLE_ASSIGNMENT((#114));
#55=ADVANCED_FACE('',(#115),#116,.T.);
#56=PRESENTATION_STYLE_ASSIGNMENT((#117));
#57=ADVANCED_FACE('',(#118),#119,.T.);
#58=PRESENTATION_STYLE_ASSIGNMENT((#120));
#59=ADVANCED_FACE('',(#121),#122,.T.);
#60=PRESENTATION_STYLE_ASSIGNMENT((#123));
#61=ADVANCED_FACE('',(#124),#125,.T.);
#62=PRESENTATION_STYLE_ASSIGNMENT((#126));
#63=ADVANCED_FACE('',(#127),#128,.T.);
#64=PRESENTATION_STYLE_ASSIGNMENT((#129));
#65=ADVANCED_FACE('',(#130),#131,.T.);
#66=PRESENTATION_STYLE_ASSIGNMENT((#132));
#67=ADVANCED_FACE('',(#133),#134,.F.);
#68=PRESENTATION_STYLE_ASSIGNMENT((#135));
#69=ADVANCED_FACE('',(#136),#137,.T.);
#70=PRESENTATION_STYLE_ASSIGNMENT((#138));
#71=ADVANCED_FACE('',(#139),#140,.T.);
#72=PRESENTATION_STYLE_ASSIGNMENT((#141));
#73=ADVANCED_FACE('',(#142),#143,.T.);
#74=PRESENTATION_STYLE_ASSIGNMENT((#144));
#75=ADVANCED_FACE('',(#145),#146,.T.);
#76=PRESENTATION_STYLE_ASSIGNMENT((#147));
#77=ADVANCED_FACE('',(#148),#149,.F.);
#78=PRESENTATION_STYLE_ASSIGNMENT((#150));
#79=MANIFOLD_SOLID_BREP('2021_04_23__08-12-27-395',#151);
#80=PRODUCT('2021_04_23__08-12-27-395','','PART--DESC',(#152));
#81=PRODUCT_DEFINITION('','NONE',#153,#2);
#82=AXIS2_PLACEMENT_3D('',#154,#155,#156);
#85=LENGTH_MEASURE_WITH_UNIT(LENGTH_MEASURE(1.0),#157);
#88=DIMENSIONAL_EXPONENTS(1.0,0.0,0.0,0.0,0.0,0.0,0.0);
#90=DIMENSIONAL_EXPONENTS(0.0,0.0,0.0,0.0,0.0,0.0,0.0);
#96=SURFACE_STYLE_USAGE(.BOTH.,#158);
#97=FACE_OUTER_BOUND('',#159,.T.);
#98=CYLINDRICAL_SURFACE('',#160,0.6);
#99=SURFACE_STYLE_USAGE(.BOTH.,#161);
#100=FACE_OUTER_BOUND('',#162,.T.);
#101=PLANE('',#163);
#102=SURFACE_STYLE_USAGE(.BOTH.,#164);
#103=FACE_OUTER_BOUND('',#165,.T.);
#104=CYLINDRICAL_SURFACE('',#166,1.1999999942);
#105=SURFACE_STYLE_USAGE(.BOTH.,#167);
#106=FACE_OUTER_BOUND('',#168,.T.);
#107=PLANE('',#169);
#108=SURFACE_STYLE_USAGE(.BOTH.,#170);
#109=FACE_OUTER_BOUND('',#171,.T.);
#110=PLANE('',#172);
#111=SURFACE_STYLE_USAGE(.BOTH.,#173);
#112=FACE_OUTER_BOUND('',#174,.T.);
#113=PLANE('',#175);
#114=SURFACE_STYLE_USAGE(.BOTH.,#176);
#115=FACE_OUTER_BOUND('',#177,.T.);
#116=PLANE('',#178);
#117=SURFACE_STYLE_USAGE(.BOTH.,#179);
#118=FACE_OUTER_BOUND('',#180,.T.);
#119=PLANE('',#181);
#120=SURFACE_STYLE_USAGE(.BOTH.,#182);
#121=FACE_OUTER_BOUND('',#183,.T.);
#122=PLANE('',#184);
#123=SURFACE_STYLE_USAGE(.BOTH.,#185);
#124=FACE_OUTER_BOUND('',#186,.T.);
#125=PLANE('',#187);
#126=SURFACE_STYLE_USAGE(.BOTH.,#188);
#127=FACE_OUTER_BOUND('',#189,.T.);
#128=PLANE('',#190);
#129=SURFACE_STYLE_USAGE(.BOTH.,#191);
#130=FACE_OUTER_BOUND('',#192,.T.);
#131=PLANE('',#193);
#132=SURFACE_STYLE_USAGE(.BOTH.,#194);
#133=FACE_OUTER_BOUND('',#195,.T.);
#134=CYLINDRICAL_SURFACE('',#196,1.2);
#135=SURFACE_STYLE_USAGE(.BOTH.,#197);
#136=FACE_OUTER_BOUND('',#198,.T.);
#137=PLANE('',#199);
#138=SURFACE_STYLE_USAGE(.BOTH.,#200);
#139=FACE_OUTER_BOUND('',#201,.T.);
#140=CYLINDRICAL_SURFACE('',#202,0.599999999200003);
#141=SURFACE_STYLE_USAGE(.BOTH.,#203);
#142=FACE_OUTER_BOUND('',#204,.T.);
#143=PLANE('',#205);
#144=SURFACE_STYLE_USAGE(.BOTH.,#206);
#145=FACE_OUTER_BOUND('',#207,.T.);
#146=PLANE('',#208);
#147=SURFACE_STYLE_USAGE(.BOTH.,#209);
#148=FACE_OUTER_BOUND('',#210,.T.);
#149=PLANE('',#211);
#150=SURFACE_STYLE_USAGE(.BOTH.,#212);
#151=CLOSED_SHELL('',(#43,#45,#47,#49,#51,#53,#55,#57,#59,#61,#63,#65,#67,#69,#71,#73,#75,#77));
#152=PRODUCT_CONTEXT('',#29,'mechanical');
#153=PRODUCT_DEFINITION_FORMATION_WITH_SPECIFIED_SOURCE(' ','NONE',#80,.NOT_KNOWN.);
#154=CARTESIAN_POINT('',(0.0,0.0,0.0));
#155=DIRECTION('',(0.0,0.0,1.0));
#156=DIRECTION('',(1.0,0.0,0.0));
#157= (NAMED_UNIT(#88)LENGTH_UNIT()SI_UNIT(.MILLI.,.METRE.));
#158=SURFACE_SIDE_STYLE('',(#214));
#159=EDGE_LOOP('',(#215,#216,#217,#218));
#160=AXIS2_PLACEMENT_3D('',#219,#220,#221);
#161=SURFACE_SIDE_STYLE('',(#222));
#162=EDGE_LOOP('',(#223,#224,#225,#226));
#163=AXIS2_PLACEMENT_3D('',#227,#228,#229);
#164=SURFACE_SIDE_STYLE('',(#230));
#165=EDGE_LOOP('',(#231,#232,#233,#234));
#166=AXIS2_PLACEMENT_3D('',#235,#236,#237);
#167=SURFACE_SIDE_STYLE('',(#238));
#168=EDGE_LOOP('',(#239,#240,#241,#242));
#169=AXIS2_PLACEMENT_3D('',#243,#244,#245);
#170=SURFACE_SIDE_STYLE('',(#246));
#171=EDGE_LOOP('',(#247,#248,#249,#250));
#172=AXIS2_PLACEMENT_3D('',#251,#252,#253);
#173=SURFACE_SIDE_STYLE('',(#254));
#174=EDGE_LOOP('',(#255,#256,#257,#258));
#175=AXIS2_PLACEMENT_3D('',#259,#260,#261);
#176=SURFACE_SIDE_STYLE('',(#262));
#177=EDGE_LOOP('',(#263,#264,#265,#266));
#178=AXIS2_PLACEMENT_3D('',#267,#268,#269);
#179=SURFACE_SIDE_STYLE('',(#270));
#180=EDGE_LOOP('',(#271,#272,#273,#274));
#181=AXIS2_PLACEMENT_3D('',#275,#276,#277);
#182=SURFACE_SIDE_STYLE('',(#278));
#183=EDGE_LOOP('',(#279,#280,#281,#282));
#184=AXIS2_PLACEMENT_3D('',#283,#284,#285);
#185=SURFACE_SIDE_STYLE('',(#286));
#186=EDGE_LOOP('',(#287,#288,#289,#290));
#187=AXIS2_PLACEMENT_3D('',#291,#292,#293);
#188=SURFACE_SIDE_STYLE('',(#294));
#189=EDGE_LOOP('',(#295,#296,#297,#298));
#190=AXIS2_PLACEMENT_3D('',#299,#300,#301);
#191=SURFACE_SIDE_STYLE('',(#302));
#192=EDGE_LOOP('',(#303,#304,#305,#306));
#193=AXIS2_PLACEMENT_3D('',#307,#308,#309);
#194=SURFACE_SIDE_STYLE('',(#310));
#195=EDGE_LOOP('',(#311,#312,#313,#314));
#196=AXIS2_PLACEMENT_3D('',#315,#316,#317);
#197=SURFACE_SIDE_STYLE('',(#318));
#198=EDGE_LOOP('',(#319,#320,#321,#322));
#199=AXIS2_PLACEMENT_3D('',#323,#324,#325);
#200=SURFACE_SIDE_STYLE('',(#326));
#201=EDGE_LOOP('',(#327,#328,#329,#330));
#202=AXIS2_PLACEMENT_3D('',#331,#332,#333);
#203=SURFACE_SIDE_STYLE('',(#334));
#204=EDGE_LOOP('',(#335,#336,#337,#338));
#205=AXIS2_PLACEMENT_3D('',#339,#340,#341);
#206=SURFACE_SIDE_STYLE('',(#342));
#207=EDGE_LOOP('',(#343,#344,#345,#346,#347,#348,#349,#350,#351,#352,#353,#354,#355,#356,#357,#358));
#208=AXIS2_PLACEMENT_3D('',#359,#360,#361);
#209=SURFACE_SIDE_STYLE('',(#362));
#210=EDGE_LOOP('',(#363,#364,#365,#366,#367,#368,#369,#370,#371,#372,#373,#374,#375,#376,#377,#378));
#211=AXIS2_PLACEMENT_3D('',#379,#380,#381);
#212=SURFACE_SIDE_STYLE('',(#382));
#214=SURFACE_STYLE_FILL_AREA(#383);
#215=ORIENTED_EDGE('',*,*,#384,.T.);
#216=ORIENTED_EDGE('',*,*,#385,.F.);
#217=ORIENTED_EDGE('',*,*,#386,.T.);
#218=ORIENTED_EDGE('',*,*,#387,.T.);
#219=CARTESIAN_POINT('',(-2.09444246,8.0,-2.75));
#220=DIRECTION('',(0.0,-1.0,-0.0));
#221=DIRECTION('',(-0.906307784488214,0.0,-0.422618267205837));
#222=SURFACE_STYLE_FILL_AREA(#388);
#223=ORIENTED_EDGE('',*,*,#389,.T.);
#224=ORIENTED_EDGE('',*,*,#390,.F.);
#225=ORIENTED_EDGE('',*,*,#391,.F.);
#226=ORIENTED_EDGE('',*,*,#385,.T.);
#227=CARTESIAN_POINT('',(-2.97879792999993,8.0,-2.27321452500016));
#228=DIRECTION('',(-0.906307786477361,-0.0,-0.4226182629401));
#229=DIRECTION('',(0.4226182629401,0.0,-0.906307786477361));
#230=SURFACE_STYLE_FILL_AREA(#392);
#231=ORIENTED_EDGE('',*,*,#393,.T.);
#232=ORIENTED_EDGE('',*,*,#394,.F.);
#233=ORIENTED_EDGE('',*,*,#395,.F.);
#234=ORIENTED_EDGE('',*,*,#390,.T.);
#235=CARTESIAN_POINT('',(-4.40693807,8.0,-2.05));
#236=DIRECTION('',(0.0,-1.0,0.0));
#237=DIRECTION('',(0.906307787680583,0.0,0.422618260359781));
#238=SURFACE_STYLE_FILL_AREA(#396);
#239=ORIENTED_EDGE('',*,*,#397,.T.);
#240=ORIENTED_EDGE('',*,*,#398,.F.);
#241=ORIENTED_EDGE('',*,*,#399,.F.);
#242=ORIENTED_EDGE('',*,*,#394,.T.);
#243=CARTESIAN_POINT('',(-4.574879195,8.0,-0.85));
#244=DIRECTION('',(0.0,0.0,-1.0));
#245=DIRECTION('',(1.0,0.0,0.0));
#246=SURFACE_STYLE_FILL_AREA(#400);
#247=ORIENTED_EDGE('',*,*,#401,.T.);
#248=ORIENTED_EDGE('',*,*,#402,.F.);
#249=ORIENTED_EDGE('',*,*,#403,.F.);
#250=ORIENTED_EDGE('',*,*,#398,.T.);
#251=CARTESIAN_POINT('',(-4.7830127,8.0,-0.7));
#252=DIRECTION('',(-0.965925824461325,-0.0,-0.258819051923753));
#253=DIRECTION('',(0.258819051923753,0.0,-0.965925824461325));
#254=SURFACE_STYLE_FILL_AREA(#404);
#255=ORIENTED_EDGE('',*,*,#405,.T.);
#256=ORIENTED_EDGE('',*,*,#406,.F.);
#257=ORIENTED_EDGE('',*,*,#407,.F.);
#258=ORIENTED_EDGE('',*,*,#402,.T.);
#259=CARTESIAN_POINT('',(-4.91160254,8.0,-0.55));
#260=DIRECTION('',(0.0,0.0,-1.0));
#261=DIRECTION('',(1.0,0.0,0.0));
#262=SURFACE_STYLE_FILL_AREA(#408);
#263=ORIENTED_EDGE('',*,*,#409,.T.);
#264=ORIENTED_EDGE('',*,*,#410,.F.);
#265=ORIENTED_EDGE('',*,*,#411,.F.);
#266=ORIENTED_EDGE('',*,*,#406,.T.);
#267=CARTESIAN_POINT('',(-5.0,8.0,0.55));
#268=DIRECTION('',(-1.0,0.0,0.0));
#269=DIRECTION('',(0.0,0.0,-1.0));
#270=SURFACE_STYLE_FILL_AREA(#412);
#271=ORIENTED_EDGE('',*,*,#413,.T.);
#272=ORIENTED_EDGE('',*,*,#414,.F.);
#273=ORIENTED_EDGE('',*,*,#415,.F.);
#274=ORIENTED_EDGE('',*,*,#410,.T.);
#275=CARTESIAN_POINT('',(0.0,8.0,1.65));
#276=DIRECTION('',(0.0,0.0,1.0));
#277=DIRECTION('',(-1.0,0.0,-0.0));
#278=SURFACE_STYLE_FILL_AREA(#416);
#279=ORIENTED_EDGE('',*,*,#417,.T.);
#280=ORIENTED_EDGE('',*,*,#418,.F.);
#281=ORIENTED_EDGE('',*,*,#419,.F.);
#282=ORIENTED_EDGE('',*,*,#414,.T.);
#283=CARTESIAN_POINT('',(5.0,8.0,0.55));
#284=DIRECTION('',(1.0,0.0,-0.0));
#285=DIRECTION('',(0.0,0.0,1.0));
#286=SURFACE_STYLE_FILL_AREA(#420);
#287=ORIENTED_EDGE('',*,*,#421,.T.);
#288=ORIENTED_EDGE('',*,*,#422,.F.);
#289=ORIENTED_EDGE('',*,*,#423,.F.);
#290=ORIENTED_EDGE('',*,*,#418,.T.);
#291=CARTESIAN_POINT('',(4.91160254,8.0,-0.55));
#292=DIRECTION('',(0.0,0.0,-1.0));
#293=DIRECTION('',(1.0,0.0,0.0));
#294=SURFACE_STYLE_FILL_AREA(#424);
#295=ORIENTED_EDGE('',*,*,#425,.T.);
#296=ORIENTED_EDGE('',*,*,#426,.F.);
#297=ORIENTED_EDGE('',*,*,#427,.F.);
#298=ORIENTED_EDGE('',*,*,#422,.T.);
#299=CARTESIAN_POINT('',(4.7830127,8.0,-0.7));
#300=DIRECTION('',(0.965925824461325,0.0,-0.258819051923753));
#301=DIRECTION('',(0.258819051923753,0.0,0.965925824461325));
#302=SURFACE_STYLE_FILL_AREA(#428);
#303=ORIENTED_EDGE('',*,*,#429,.T.);
#304=ORIENTED_EDGE('',*,*,#430,.F.);
#305=ORIENTED_EDGE('',*,*,#431,.F.);
#306=ORIENTED_EDGE('',*,*,#426,.T.);
#307=CARTESIAN_POINT('',(4.574879195,8.0,-0.85));
#308=DIRECTION('',(0.0,0.0,-1.0));
#309=DIRECTION('',(1.0,0.0,0.0));
#310=SURFACE_STYLE_FILL_AREA(#432);
#311=ORIENTED_EDGE('',*,*,#433,.T.);
#312=ORIENTED_EDGE('',*,*,#434,.F.);
#313=ORIENTED_EDGE('',*,*,#435,.F.);
#314=ORIENTED_EDGE('',*,*,#430,.T.);
#315=CARTESIAN_POINT('',(4.40693807,8.0,-2.05));
#316=DIRECTION('',(0.0,-1.0,0.0));
#317=DIRECTION('',(-7.40148683083437E-016,0.0,1.0));
#318=SURFACE_STYLE_FILL_AREA(#436);
#319=ORIENTED_EDGE('',*,*,#437,.T.);
#320=ORIENTED_EDGE('',*,*,#438,.F.);
#321=ORIENTED_EDGE('',*,*,#439,.F.);
#322=ORIENTED_EDGE('',*,*,#434,.T.);
#323=CARTESIAN_POINT('',(2.97879792999984,8.0,-2.27321452500035));
#324=DIRECTION('',(0.906307786477361,0.0,-0.4226182629401));
#325=DIRECTION('',(0.4226182629401,0.0,0.906307786477361));
#326=SURFACE_STYLE_FILL_AREA(#440);
#327=ORIENTED_EDGE('',*,*,#441,.T.);
#328=ORIENTED_EDGE('',*,*,#442,.F.);
#329=ORIENTED_EDGE('',*,*,#443,.T.);
#330=ORIENTED_EDGE('',*,*,#438,.T.);
#331=CARTESIAN_POINT('',(2.09444246,8.0,-2.75));
#332=DIRECTION('',(0.0,-1.0,0.0));
#333=DIRECTION('',(2.9605947362812E-015,0.0,-1.0));
#334=SURFACE_STYLE_FILL_AREA(#444);
#335=ORIENTED_EDGE('',*,*,#445,.T.);
#336=ORIENTED_EDGE('',*,*,#387,.F.);
#337=ORIENTED_EDGE('',*,*,#446,.F.);
#338=ORIENTED_EDGE('',*,*,#442,.T.);
#339=CARTESIAN_POINT('',(-1.04722123,8.0,-3.35));
#340=DIRECTION('',(0.0,0.0,-1.0));
#341=DIRECTION('',(1.0,0.0,0.0));
#342=SURFACE_STYLE_FILL_AREA(#447);
#343=ORIENTED_EDGE('',*,*,#384,.F.);
#344=ORIENTED_EDGE('',*,*,#445,.F.);
#345=ORIENTED_EDGE('',*,*,#441,.F.);
#346=ORIENTED_EDGE('',*,*,#437,.F.);
#347=ORIENTED_EDGE('',*,*,#433,.F.);
#348=ORIENTED_EDGE('',*,*,#429,.F.);
#349=ORIENTED_EDGE('',*,*,#425,.F.);
#350=ORIENTED_EDGE('',*,*,#421,.F.);
#351=ORIENTED_EDGE('',*,*,#417,.F.);
#352=ORIENTED_EDGE('',*,*,#413,.F.);
#353=ORIENTED_EDGE('',*,*,#409,.F.);
#354=ORIENTED_EDGE('',*,*,#405,.F.);
#355=ORIENTED_EDGE('',*,*,#401,.F.);
#356=ORIENTED_EDGE('',*,*,#397,.F.);
#357=ORIENTED_EDGE('',*,*,#393,.F.);
#358=ORIENTED_EDGE('',*,*,#389,.F.);
#359=CARTESIAN_POINT('',(6.75269527794509E-010,-8.0,-0.400455315912092));
#360=DIRECTION('',(0.0,-1.0,0.0));
#361=DIRECTION('',(1.0,0.0,0.0));
#362=SURFACE_STYLE_FILL_AREA(#448);
#363=ORIENTED_EDGE('',*,*,#446,.T.);
#364=ORIENTED_EDGE('',*,*,#386,.F.);
#365=ORIENTED_EDGE('',*,*,#391,.T.);
#366=ORIENTED_EDGE('',*,*,#395,.T.);
#367=ORIENTED_EDGE('',*,*,#399,.T.);
#368=ORIENTED_EDGE('',*,*,#403,.T.);
#369=ORIENTED_EDGE('',*,*,#407,.T.);
#370=ORIENTED_EDGE('',*,*,#411,.T.);
#371=ORIENTED_EDGE('',*,*,#415,.T.);
#372=ORIENTED_EDGE('',*,*,#419,.T.);
#373=ORIENTED_EDGE('',*,*,#423,.T.);
#374=ORIENTED_EDGE('',*,*,#427,.T.);
#375=ORIENTED_EDGE('',*,*,#431,.T.);
#376=ORIENTED_EDGE('',*,*,#435,.T.);
#377=ORIENTED_EDGE('',*,*,#439,.T.);
#378=ORIENTED_EDGE('',*,*,#443,.F.);
#379=CARTESIAN_POINT('',(6.75269271055434E-010,8.0,-0.400455315912092));
#380=DIRECTION('',(0.0,-1.0,0.0));
#381=DIRECTION('',(1.0,0.0,0.0));
#382=SURFACE_STYLE_FILL_AREA(#449);
#383=FILL_AREA_STYLE('',(#450));
#384=EDGE_CURVE('',#451,#452,#453,.T.);
#385=EDGE_CURVE('',#454,#452,#455,.T.);
#386=EDGE_CURVE('',#454,#456,#457,.T.);
#387=EDGE_CURVE('',#456,#451,#458,.T.);
#388=FILL_AREA_STYLE('',(#459));
#389=EDGE_CURVE('',#452,#460,#461,.T.);
#390=EDGE_CURVE('',#462,#460,#463,.T.);
#391=EDGE_CURVE('',#454,#462,#464,.T.);
#392=FILL_AREA_STYLE('',(#465));
#393=EDGE_CURVE('',#460,#466,#467,.T.);
#394=EDGE_CURVE('',#468,#466,#469,.T.);
#395=EDGE_CURVE('',#462,#468,#470,.T.);
#396=FILL_AREA_STYLE('',(#471));
#397=EDGE_CURVE('',#466,#472,#473,.T.);
#398=EDGE_CURVE('',#474,#472,#475,.T.);
#399=EDGE_CURVE('',#468,#474,#476,.T.);
#400=FILL_AREA_STYLE('',(#477));
#401=EDGE_CURVE('',#472,#478,#479,.T.);
#402=EDGE_CURVE('',#480,#478,#481,.T.);
#403=EDGE_CURVE('',#474,#480,#482,.T.);
#404=FILL_AREA_STYLE('',(#483));
#405=EDGE_CURVE('',#478,#484,#485,.T.);
#406=EDGE_CURVE('',#486,#484,#487,.T.);
#407=EDGE_CURVE('',#480,#486,#488,.T.);
#408=FILL_AREA_STYLE('',(#489));
#409=EDGE_CURVE('',#484,#490,#491,.T.);
#410=EDGE_CURVE('',#492,#490,#493,.T.);
#411=EDGE_CURVE('',#486,#492,#494,.T.);
#412=FILL_AREA_STYLE('',(#495));
#413=EDGE_CURVE('',#490,#496,#497,.T.);
#414=EDGE_CURVE('',#498,#496,#499,.T.);
#415=EDGE_CURVE('',#492,#498,#500,.T.);
#416=FILL_AREA_STYLE('',(#501));
#417=EDGE_CURVE('',#496,#502,#503,.T.);
#418=EDGE_CURVE('',#504,#502,#505,.T.);
#419=EDGE_CURVE('',#498,#504,#506,.T.);
#420=FILL_AREA_STYLE('',(#507));
#421=EDGE_CURVE('',#502,#508,#509,.T.);
#422=EDGE_CURVE('',#510,#508,#511,.T.);
#423=EDGE_CURVE('',#504,#510,#512,.T.);
#424=FILL_AREA_STYLE('',(#513));
#425=EDGE_CURVE('',#508,#514,#515,.T.);
#426=EDGE_CURVE('',#516,#514,#517,.T.);
#427=EDGE_CURVE('',#510,#516,#518,.T.);
#428=FILL_AREA_STYLE('',(#519));
#429=EDGE_CURVE('',#514,#520,#521,.T.);
#430=EDGE_CURVE('',#522,#520,#523,.T.);
#431=EDGE_CURVE('',#516,#522,#524,.T.);
#432=FILL_AREA_STYLE('',(#525));
#433=EDGE_CURVE('',#520,#526,#527,.T.);
#434=EDGE_CURVE('',#528,#526,#529,.T.);
#435=EDGE_CURVE('',#522,#528,#530,.T.);
#436=FILL_AREA_STYLE('',(#531));
#437=EDGE_CURVE('',#526,#532,#533,.T.);
#438=EDGE_CURVE('',#534,#532,#535,.T.);
#439=EDGE_CURVE('',#528,#534,#536,.T.);
#440=FILL_AREA_STYLE('',(#537));
#441=EDGE_CURVE('',#532,#538,#539,.T.);
#442=EDGE_CURVE('',#540,#538,#541,.T.);
#443=EDGE_CURVE('',#540,#534,#542,.T.);
#444=FILL_AREA_STYLE('',(#543));
#445=EDGE_CURVE('',#538,#451,#544,.T.);
#446=EDGE_CURVE('',#540,#456,#545,.T.);
#447=FILL_AREA_STYLE('',(#546));
#448=FILL_AREA_STYLE('',(#547));
#449=FILL_AREA_STYLE('',(#548));
#450=FILL_AREA_STYLE_COLOUR('',#549);
#451=VERTEX_POINT('',#550);
#452=VERTEX_POINT('',#551);
#453=CIRCLE('',#552,0.6);
#454=VERTEX_POINT('',#553);
#455=LINE('',#554,#555);
#456=VERTEX_POINT('',#556);
#457=CIRCLE('',#557,0.6);
#458=LINE('',#558,#559);
#459=FILL_AREA_STYLE_COLOUR('',#560);
#460=VERTEX_POINT('',#561);
#461=LINE('',#562,#563);
#462=VERTEX_POINT('',#564);
#463=LINE('',#565,#566);
#464=LINE('',#567,#568);
#465=FILL_AREA_STYLE_COLOUR('',#569);
#466=VERTEX_POINT('',#570);
#467=CIRCLE('',#571,1.1999999942);
#468=VERTEX_POINT('',#572);
#469=LINE('',#573,#574);
#470=CIRCLE('',#575,1.1999999942);
#471=FILL_AREA_STYLE_COLOUR('',#576);
#472=VERTEX_POINT('',#577);
#473=LINE('',#578,#579);
#474=VERTEX_POINT('',#580);
#475=LINE('',#581,#582);
#476=LINE('',#583,#584);
#477=FILL_AREA_STYLE_COLOUR('',#585);
#478=VERTEX_POINT('',#586);
#479=LINE('',#587,#588);
#480=VERTEX_POINT('',#589);
#481=LINE('',#590,#591);
#482=LINE('',#592,#593);
#483=FILL_AREA_STYLE_COLOUR('',#594);
#484=VERTEX_POINT('',#595);
#485=LINE('',#596,#597);
#486=VERTEX_POINT('',#598);
#487=LINE('',#599,#600);
#488=LINE('',#601,#602);
#489=FILL_AREA_STYLE_COLOUR('',#603);
#490=VERTEX_POINT('',#604);
#491=LINE('',#605,#606);
#492=VERTEX_POINT('',#607);
#493=LINE('',#608,#609);
#494=LINE('',#610,#611);
#495=FILL_AREA_STYLE_COLOUR('',#612);
#496=VERTEX_POINT('',#613);
#497=LINE('',#614,#615);
#498=VERTEX_POINT('',#616);
#499=LINE('',#617,#618);
#500=LINE('',#619,#620);
#501=FILL_AREA_STYLE_COLOUR('',#621);
#502=VERTEX_POINT('',#622);
#503=LINE('',#623,#624);
#504=VERTEX_POINT('',#625);
#505=LINE('',#626,#627);
#506=LINE('',#628,#629);
#507=FILL_AREA_STYLE_COLOUR('',#630);
#508=VERTEX_POINT('',#631);
#509=LINE('',#632,#633);
#510=VERTEX_POINT('',#634);
#511=LINE('',#635,#636);
#512=LINE('',#637,#638);
#513=FILL_AREA_STYLE_COLOUR('',#639);
#514=VERTEX_POINT('',#640);
#515=LINE('',#641,#642);
#516=VERTEX_POINT('',#643);
#517=LINE('',#644,#645);
#518=LINE('',#646,#647);
#519=FILL_AREA_STYLE_COLOUR('',#648);
#520=VERTEX_POINT('',#649);
#521=LINE('',#650,#651);
#522=VERTEX_POINT('',#652);
#523=LINE('',#653,#654);
#524=LINE('',#655,#656);
#525=FILL_AREA_STYLE_COLOUR('',#657);
#526=VERTEX_POINT('',#658);
#527=CIRCLE('',#659,1.2);
#528=VERTEX_POINT('',#660);
#529=LINE('',#661,#662);
#530=CIRCLE('',#663,1.2);
#531=FILL_AREA_STYLE_COLOUR('',#664);
#532=VERTEX_POINT('',#665);
#533=LINE('',#666,#667);
#534=VERTEX_POINT('',#668);
#535=LINE('',#669,#670);
#536=LINE('',#671,#672);
#537=FILL_AREA_STYLE_COLOUR('',#673);
#538=VERTEX_POINT('',#674);
#539=CIRCLE('',#675,0.599999999200003);
#540=VERTEX_POINT('',#676);
#541=LINE('',#677,#678);
#542=CIRCLE('',#679,0.599999999200003);
#543=FILL_AREA_STYLE_COLOUR('',#680);
#544=LINE('',#681,#682);
#545=LINE('',#683,#684);
#546=FILL_AREA_STYLE_COLOUR('',#685);
#547=FILL_AREA_STYLE_COLOUR('',#686);
#548=FILL_AREA_STYLE_COLOUR('',#687);
#549=COLOUR_RGB('',0.509803950786591,0.509803950786591,0.588235318660736);
#550=CARTESIAN_POINT('',(-2.09444246,-8.0,-3.35));
#551=CARTESIAN_POINT('',(-2.63822713069293,-8.0,-3.0035709603235));
#552=AXIS2_PLACEMENT_3D('',#688,#689,#690);
#553=CARTESIAN_POINT('',(-2.63822713069293,8.0,-3.0035709603235));
#554=CARTESIAN_POINT('',(-2.63822713069293,8.0,-3.0035709603235));
#555=VECTOR('',#691,1.0);
#556=CARTESIAN_POINT('',(-2.09444246,8.0,-3.35));
#557=AXIS2_PLACEMENT_3D('',#692,#693,#694);
#558=CARTESIAN_POINT('',(-2.09444246,8.0,-3.35));
#559=VECTOR('',#695,1.0);
#560=COLOUR_RGB('',0.509803950786591,0.509803950786591,0.588235318660736);
#561=CARTESIAN_POINT('',(-3.31936873,-8.0,-1.54285809));
#562=CARTESIAN_POINT('',(-2.63822713,-8.0,-3.00357096));
#563=VECTOR('',#696,1.0);
#564=CARTESIAN_POINT('',(-3.31936873,8.0,-1.54285809));
#565=CARTESIAN_POINT('',(-3.31936873,8.0,-1.54285809));
#566=VECTOR('',#697,1.0);
#567=CARTESIAN_POINT('',(-2.63822713,8.0,-3.00357096));
#568=VECTOR('',#698,1.0);
#569=COLOUR_RGB('',0.509803950786591,0.509803950786591,0.588235318660736);
#570=CARTESIAN_POINT('',(-4.40693807,-8.0,-0.8500000058));
#571=AXIS2_PLACEMENT_3D('',#699,#700,#701);
#572=CARTESIAN_POINT('',(-4.40693807,8.0,-0.8500000058));
#573=CARTESIAN_POINT('',(-4.40693807,8.0,-0.8500000058));
#574=VECTOR('',#702,1.0);
#575=AXIS2_PLACEMENT_3D('',#703,#704,#705);
#576=COLOUR_RGB('',0.509803950786591,0.509803950786591,0.588235318660736);
#577=CARTESIAN_POINT('',(-4.74282032,-8.0,-0.85));
#578=CARTESIAN_POINT('',(-4.40693807,-8.0,-0.85));
#579=VECTOR('',#706,1.0);
#580=CARTESIAN_POINT('',(-4.74282032,8.0,-0.85));
#581=CARTESIAN_POINT('',(-4.74282032,8.0,-0.85));
#582=VECTOR('',#707,1.0);
#583=CARTESIAN_POINT('',(-4.40693807,8.0,-0.85));
#584=VECTOR('',#708,1.0);
#585=COLOUR_RGB('',0.509803950786591,0.509803950786591,0.588235318660736);
#586=CARTESIAN_POINT('',(-4.82320508,-8.0,-0.55));
#587=CARTESIAN_POINT('',(-4.74282032,-8.0,-0.85));
#588=VECTOR('',#709,1.0);
#589=CARTESIAN_POINT('',(-4.82320508,8.0,-0.55));
#590=CARTESIAN_POINT('',(-4.82320508,8.0,-0.55));
#591=VECTOR('',#710,1.0);
#592=CARTESIAN_POINT('',(-4.74282032,8.0,-0.85));
#593=VECTOR('',#711,1.0);
#594=COLOUR_RGB('',0.509803950786591,0.509803950786591,0.588235318660736);
#595=CARTESIAN_POINT('',(-5.0,-8.0,-0.55));
#596=CARTESIAN_POINT('',(-4.82320508,-8.0,-0.55));
#597=VECTOR('',#712,1.0);
#598=CARTESIAN_POINT('',(-5.0,8.0,-0.55));
#599=CARTESIAN_POINT('',(-5.0,8.0,-0.55));
#600=VECTOR('',#713,1.0);
#601=CARTESIAN_POINT('',(-4.82320508,8.0,-0.55));
#602=VECTOR('',#714,1.0);
#603=COLOUR_RGB('',0.509803950786591,0.509803950786591,0.588235318660736);
#604=CARTESIAN_POINT('',(-5.0,-8.0,1.65));
#605=CARTESIAN_POINT('',(-5.0,-8.0,-0.55));
#606=VECTOR('',#715,1.0);
#607=CARTESIAN_POINT('',(-5.0,8.0,1.65));
#608=CARTESIAN_POINT('',(-5.0,8.0,1.65));
#609=VECTOR('',#716,1.0);
#610=CARTESIAN_POINT('',(-5.0,8.0,-0.55));
#611=VECTOR('',#717,1.0);
#612=COLOUR_RGB('',0.509803950786591,0.509803950786591,0.588235318660736);
#613=CARTESIAN_POINT('',(5.0,-8.0,1.65));
#614=CARTESIAN_POINT('',(-5.0,-8.0,1.65));
#615=VECTOR('',#718,1.0);
#616=CARTESIAN_POINT('',(5.0,8.0,1.65));
#617=CARTESIAN_POINT('',(5.0,8.0,1.65));
#618=VECTOR('',#719,1.0);
#619=CARTESIAN_POINT('',(-5.0,8.0,1.65));
#620=VECTOR('',#720,1.0);
#621=COLOUR_RGB('',0.509803950786591,0.509803950786591,0.588235318660736);
#622=CARTESIAN_POINT('',(5.0,-8.0,-0.55));
#623=CARTESIAN_POINT('',(5.0,-8.0,1.65));
#624=VECTOR('',#721,1.0);
#625=CARTESIAN_POINT('',(5.0,8.0,-0.55));
#626=CARTESIAN_POINT('',(5.0,8.0,-0.55));
#627=VECTOR('',#722,1.0);
#628=CARTESIAN_POINT('',(5.0,8.0,1.65));
#629=VECTOR('',#723,1.0);
#630=COLOUR_RGB('',0.509803950786591,0.509803950786591,0.588235318660736);
#631=CARTESIAN_POINT('',(4.82320508,-8.0,-0.55));
#632=CARTESIAN_POINT('',(5.0,-8.0,-0.55));
#633=VECTOR('',#724,1.0);
#634=CARTESIAN_POINT('',(4.82320508,8.0,-0.55));
#635=CARTESIAN_POINT('',(4.82320508,8.0,-0.55));
#636=VECTOR('',#725,1.0);
#637=CARTESIAN_POINT('',(5.0,8.0,-0.55));
#638=VECTOR('',#726,1.0);
#639=COLOUR_RGB('',0.509803950786591,0.509803950786591,0.588235318660736);
#640=CARTESIAN_POINT('',(4.74282032,-8.0,-0.85));
#641=CARTESIAN_POINT('',(4.82320508,-8.0,-0.55));
#642=VECTOR('',#727,1.0);
#643=CARTESIAN_POINT('',(4.74282032,8.0,-0.85));
#644=CARTESIAN_POINT('',(4.74282032,8.0,-0.85));
#645=VECTOR('',#728,1.0);
#646=CARTESIAN_POINT('',(4.82320508,8.0,-0.55));
#647=VECTOR('',#729,1.0);
#648=COLOUR_RGB('',0.509803950786591,0.509803950786591,0.588235318660736);
#649=CARTESIAN_POINT('',(4.40693807,-8.0,-0.85));
#650=CARTESIAN_POINT('',(4.74282032,-8.0,-0.85));
#651=VECTOR('',#730,1.0);
#652=CARTESIAN_POINT('',(4.40693807,8.0,-0.85));
#653=CARTESIAN_POINT('',(4.40693807,8.0,-0.85));
#654=VECTOR('',#731,1.0);
#655=CARTESIAN_POINT('',(4.74282032,8.0,-0.85));
#656=VECTOR('',#732,1.0);
#657=COLOUR_RGB('',0.509803950786591,0.509803950786591,0.588235318660736);
#658=CARTESIAN_POINT('',(3.3193687247833,-8.0,-1.54285808756826));
#659=AXIS2_PLACEMENT_3D('',#733,#734,#735);
#660=CARTESIAN_POINT('',(3.3193687247833,8.0,-1.54285808756826));
#661=CARTESIAN_POINT('',(3.3193687247833,8.0,-1.54285808756826));
#662=VECTOR('',#736,1.0);
#663=AXIS2_PLACEMENT_3D('',#737,#738,#739);
#664=COLOUR_RGB('',0.509803950786591,0.509803950786591,0.588235318660736);
#665=CARTESIAN_POINT('',(2.63822713,-8.0,-3.00357096));
#666=CARTESIAN_POINT('',(3.31936873,-8.0,-1.54285809));
#667=VECTOR('',#740,1.0);
#668=CARTESIAN_POINT('',(2.63822713,8.0,-3.00357096));
#669=CARTESIAN_POINT('',(2.63822713,8.0,-3.00357096));
#670=VECTOR('',#741,1.0);
#671=CARTESIAN_POINT('',(3.31936873,8.0,-1.54285809));
#672=VECTOR('',#742,1.0);
#673=COLOUR_RGB('',0.509803950786591,0.509803950786591,0.588235318660736);
#674=CARTESIAN_POINT('',(2.09444246,-8.0,-3.3499999992));
#675=AXIS2_PLACEMENT_3D('',#743,#744,#745);
#676=CARTESIAN_POINT('',(2.09444246,8.0,-3.3499999992));
#677=CARTESIAN_POINT('',(2.09444246,8.0,-3.3499999992));
#678=VECTOR('',#746,1.0);
#679=AXIS2_PLACEMENT_3D('',#747,#748,#749);
#680=COLOUR_RGB('',0.509803950786591,0.509803950786591,0.588235318660736);
#681=CARTESIAN_POINT('',(2.09444246,-8.0,-3.35));
#682=VECTOR('',#750,1.0);
#683=CARTESIAN_POINT('',(0.0,8.0,-3.35));
#684=VECTOR('',#751,1.0);
#685=COLOUR_RGB('',0.509803950786591,0.509803950786591,0.588235318660736);
#686=COLOUR_RGB('',0.509803950786591,0.509803950786591,0.588235318660736);
#687=COLOUR_RGB('',0.509803950786591,0.509803950786591,0.588235318660736);
#688=CARTESIAN_POINT('',(-2.09444246,-8.0,-2.75));
#689=DIRECTION('',(0.0,1.0,-0.0));
#690=DIRECTION('',(-0.906307784488214,-0.0,-0.422618267205837));
#691=DIRECTION('',(0.0,-1.0,0.0));
#692=CARTESIAN_POINT('',(-2.09444246,8.0,-2.75));
#693=DIRECTION('',(0.0,-1.0,-0.0));
#694=DIRECTION('',(-0.906307784488214,0.0,-0.422618267205837));
#695=DIRECTION('',(0.0,-1.0,0.0));
#696=DIRECTION('',(-0.4226182629401,0.0,0.906307786477361));
#697=DIRECTION('',(0.0,-1.0,0.0));
#698=DIRECTION('',(-0.4226182629401,0.0,0.906307786477361));
#699=CARTESIAN_POINT('',(-4.40693807,-8.0,-2.05));
#700=DIRECTION('',(0.0,-1.0,0.0));
#701=DIRECTION('',(0.906307787680583,0.0,0.422618260359781));
#702=DIRECTION('',(0.0,-1.0,0.0));
#703=CARTESIAN_POINT('',(-4.40693807,8.0,-2.05));
#704=DIRECTION('',(0.0,-1.0,0.0));
#705=DIRECTION('',(0.906307787680583,0.0,0.422618260359781));
#706=DIRECTION('',(-1.0,0.0,0.0));
#707=DIRECTION('',(0.0,-1.0,0.0));
#708=DIRECTION('',(-1.0,0.0,0.0));
#709=DIRECTION('',(-0.258819051923753,0.0,0.965925824461325));
#710=DIRECTION('',(0.0,-1.0,0.0));
#711=DIRECTION('',(-0.258819051923753,0.0,0.965925824461325));
#712=DIRECTION('',(-1.0,0.0,0.0));
#713=DIRECTION('',(0.0,-1.0,0.0));
#714=DIRECTION('',(-1.0,0.0,0.0));
#715=DIRECTION('',(0.0,0.0,1.0));
#716=DIRECTION('',(0.0,-1.0,0.0));
#717=DIRECTION('',(0.0,0.0,1.0));
#718=DIRECTION('',(1.0,0.0,0.0));
#719=DIRECTION('',(0.0,-1.0,0.0));
#720=DIRECTION('',(1.0,0.0,0.0));
#721=DIRECTION('',(0.0,0.0,-1.0));
#722=DIRECTION('',(0.0,-1.0,0.0));
#723=DIRECTION('',(0.0,0.0,-1.0));
#724=DIRECTION('',(-1.0,0.0,0.0));
#725=DIRECTION('',(0.0,-1.0,0.0));
#726=DIRECTION('',(-1.0,0.0,0.0));
#727=DIRECTION('',(-0.258819051923753,-0.0,-0.965925824461325));
#728=DIRECTION('',(0.0,-1.0,0.0));
#729=DIRECTION('',(-0.258819051923753,-0.0,-0.965925824461325));
#730=DIRECTION('',(-1.0,0.0,0.0));
#731=DIRECTION('',(0.0,-1.0,0.0));
#732=DIRECTION('',(-1.0,0.0,0.0));
#733=CARTESIAN_POINT('',(4.40693807,-8.0,-2.05));
#734=DIRECTION('',(0.0,-1.0,0.0));
#735=DIRECTION('',(-7.40148683083437E-016,0.0,1.0));
#736=DIRECTION('',(0.0,-1.0,0.0));
#737=CARTESIAN_POINT('',(4.40693807,8.0,-2.05));
#738=DIRECTION('',(0.0,-1.0,0.0));
#739=DIRECTION('',(-7.40148683083437E-016,0.0,1.0));
#740=DIRECTION('',(-0.4226182629401,-0.0,-0.906307786477361));
#741=DIRECTION('',(0.0,-1.0,0.0));
#742=DIRECTION('',(-0.4226182629401,-0.0,-0.906307786477361));
#743=CARTESIAN_POINT('',(2.09444246,-8.0,-2.75));
#744=DIRECTION('',(-0.0,1.0,0.0));
#745=DIRECTION('',(2.9605947362812E-015,0.0,-1.0));
#746=DIRECTION('',(0.0,-1.0,0.0));
#747=CARTESIAN_POINT('',(2.09444246,8.0,-2.75));
#748=DIRECTION('',(0.0,-1.0,0.0));
#749=DIRECTION('',(2.9605947362812E-015,0.0,-1.0));
#750=DIRECTION('',(-1.0,0.0,0.0));
#751=DIRECTION('',(-1.0,0.0,0.0));
ENDSEC;
END-ISO-10303-21;
