ISO-10303-21;
HEADER;
FILE_DESCRIPTION( ( '' ), '1' );
FILE_NAME( 'C:/Program/SmarTeam/work/0107580.stp', '2002-09-20T11:22:06', ( 'Andreas Norlén' ), ( 'PIAB AB' ), 'XStep 1.0', 'SolidEdge', ' ' );
FILE_SCHEMA( ( 'CONFIG_CONTROL_DESIGN' ) );
ENDSEC;
DATA;
#1 = DESIGN_CONTEXT( '', #27, 'design' );
#2 = APPLICATION_PROTOCOL_DEFINITION( 'INTERNATIONAL STANDARD', 'config_control_design', 1994, #27 );
#3 = PRODUCT_CATEGORY_RELATIONSHIP( 'NONE', 'NONE', #28, #29 );
#4 = DATE_AND_TIME( #30, #31 );
#5 = DATE_TIME_ROLE ( 'creation_date' );
#6 = DATE_TIME_ROLE ( 'classification_date' );
#7 = PERSON_AND_ORGANIZATION_ROLE( 'creator' );
#8 = PERSON_AND_ORGANIZATION_ROLE( 'design_supplier' );
#9 = PERSON_AND_ORGANIZATION_ROLE( 'classification_officer' );
#10 = PERSON_AND_ORGANIZATION_ROLE( 'design_owner' );
#11 = APPROVAL_PERSON_ORGANIZATION( #32, #33, #34 );
#12 = APPROVAL_DATE_TIME( #4, #33 );
#13 = CC_DESIGN_APPROVAL( #33, ( #35, #36, #37 ) );
#14 = CC_DESIGN_DATE_AND_TIME_ASSIGNMENT( #4, #5, ( #37 ) );
#15 = CC_DESIGN_DATE_AND_TIME_ASSIGNMENT( #4, #6, ( #35 ) );
#16 = CC_DESIGN_PERSON_AND_ORGANIZATION_ASSIGNMENT( #32, #10, ( #38 ) );
#17 = CC_DESIGN_PERSON_AND_ORGANIZATION_ASSIGNMENT( #32, #7, ( #37 ) );
#18 = CC_DESIGN_PERSON_AND_ORGANIZATION_ASSIGNMENT( #32, #7, ( #36 ) );
#19 = CC_DESIGN_PERSON_AND_ORGANIZATION_ASSIGNMENT( #32, #8, ( #36 ) );
#20 = CC_DESIGN_SECURITY_CLASSIFICATION( #35, ( #36 ) );
#21 = CC_DESIGN_PERSON_AND_ORGANIZATION_ASSIGNMENT( #32, #9, ( #35 ) );
#22 = SHAPE_DEFINITION_REPRESENTATION( #39, #40 );
#23 =  ( GEOMETRIC_REPRESENTATION_CONTEXT( 3 )GLOBAL_UNCERTAINTY_ASSIGNED_CONTEXT( ( #43 ) )GLOBAL_UNIT_ASSIGNED_CONTEXT( ( #45, #46, #47 ) )REPRESENTATION_CONTEXT( 'NONE', 'WORKSPACE' ) );
#27 = APPLICATION_CONTEXT( 'CONFIGURATION CONTROLLED 3D DESIGNS OF MECHANICAL PARTS AND ASSEMBLIES' );
#28 = PRODUCT_CATEGORY( 'part', 'NONE' );
#29 = PRODUCT_RELATED_PRODUCT_CATEGORY( 'detail', ' ', ( #38 ) );
#30 = CALENDAR_DATE( 2002, 20, 8 );
#31 = LOCAL_TIME( 13, 22, 6.00000000000000, #49 );
#32 = PERSON_AND_ORGANIZATION( #50, #51 );
#33 = APPROVAL( #52, 'SOLID MODEL' );
#34 = APPROVAL_ROLE( 'APPROVED' );
#35 = SECURITY_CLASSIFICATION( '', '', #53 );
#36 = PRODUCT_DEFINITION_FORMATION_WITH_SPECIFIED_SOURCE( ' ', 'NONE', #38, .NOT_KNOWN. );
#37 = PRODUCT_DEFINITION( 'NONE', 'NONE', #36, #1 );
#38 = PRODUCT( '1', '1', 'PART-1-DESC', ( #54 ) );
#39 = PRODUCT_DEFINITION_SHAPE( 'NONE', 'NONE', #37 );
#40 = ADVANCED_BREP_SHAPE_REPRESENTATION( '1', ( #55, #56 ), #23 );
#43 = UNCERTAINTY_MEASURE_WITH_UNIT( LENGTH_MEASURE( 0.00100000000000000 ), #45, '', '' );
#45 =  ( CONVERSION_BASED_UNIT( 'MILLIMETRE', #59 )LENGTH_UNIT(  )NAMED_UNIT( #62 ) );
#46 =  ( NAMED_UNIT( #64 )PLANE_ANGLE_UNIT(  )SI_UNIT( $, .RADIAN. ) );
#47 =  ( NAMED_UNIT( #64 )SOLID_ANGLE_UNIT(  )SI_UNIT( $, .STERADIAN. ) );
#49 = COORDINATED_UNIVERSAL_TIME_OFFSET( 1, 0, .AHEAD. );
#50 = PERSON( '', 'UNSPECIFIED', $, $, $, $ );
#51 = ORGANIZATION( 'UNSPECIFIED', 'UNSPECIFIED', 'UNSPECIFIED' );
#52 = APPROVAL_STATUS( 'approved' );
#53 = SECURITY_CLASSIFICATION_LEVEL( 'unclassified' );
#54 = MECHANICAL_CONTEXT( '', #27, 'mechanical' );
#55 = MANIFOLD_SOLID_BREP( '1', #70 );
#56 = AXIS2_PLACEMENT_3D( '', #71, #72, #73 );
#59 = LENGTH_MEASURE_WITH_UNIT( LENGTH_MEASURE( 0.00100000000000000 ), #74 );
#62 = DIMENSIONAL_EXPONENTS( 1.00000000000000, 0.000000000000000, 0.000000000000000, 0.000000000000000, 0.000000000000000, 0.000000000000000, 0.000000000000000 );
#64 = DIMENSIONAL_EXPONENTS( 0.000000000000000, 0.000000000000000, 0.000000000000000, 0.000000000000000, 0.000000000000000, 0.000000000000000, 0.000000000000000 );
#70 = CLOSED_SHELL( '', ( #75, #76, #77, #78, #79, #80, #81, #82, #83, #84, #85, #86, #87, #88, #89, #90, #91, #92, #93, #94, #95 ) );
#71 = CARTESIAN_POINT( '', ( 0.000000000000000, 0.000000000000000, 0.000000000000000 ) );
#72 = DIRECTION( '', ( 0.000000000000000, 0.000000000000000, 1.00000000000000 ) );
#73 = DIRECTION( '', ( 1.00000000000000, 0.000000000000000, 0.000000000000000 ) );
#74 =  ( NAMED_UNIT( #62 )LENGTH_UNIT(  )SI_UNIT( $, .METRE. ) );
#75 = ADVANCED_FACE( '', ( #97, #98 ), #99, .F. );
#76 = ADVANCED_FACE( '', ( #100, #101 ), #102, .T. );
#77 = ADVANCED_FACE( '', ( #103, #104 ), #105, .T. );
#78 = ADVANCED_FACE( '', ( #106, #107 ), #108, .F. );
#79 = ADVANCED_FACE( '', ( #109, #110 ), #111, .F. );
#80 = ADVANCED_FACE( '', ( #112, #113 ), #114, .F. );
#81 = ADVANCED_FACE( '', ( #115, #116 ), #117, .F. );
#82 = ADVANCED_FACE( '', ( #118, #119 ), #120, .F. );
#83 = ADVANCED_FACE( '', ( #121, #122 ), #123, .T. );
#84 = ADVANCED_FACE( '', ( #124, #125 ), #126, .F. );
#85 = ADVANCED_FACE( '', ( #127, #128 ), #129, .T. );
#86 = ADVANCED_FACE( '', ( #130, #131 ), #132, .F. );
#87 = ADVANCED_FACE( '', ( #133, #134 ), #135, .T. );
#88 = ADVANCED_FACE( '', ( #136, #137 ), #138, .F. );
#89 = ADVANCED_FACE( '', ( #139, #140 ), #141, .T. );
#90 = ADVANCED_FACE( '', ( #142, #143 ), #144, .F. );
#91 = ADVANCED_FACE( '', ( #145, #146 ), #147, .T. );
#92 = ADVANCED_FACE( '', ( #148, #149 ), #150, .T. );
#93 = ADVANCED_FACE( '', ( #151, #152 ), #153, .T. );
#94 = ADVANCED_FACE( '', ( #154, #155 ), #156, .F. );
#95 = ADVANCED_FACE( '', ( #157, #158 ), #159, .F. );
#97 = FACE_BOUND( '', #160, .T. );
#98 = FACE_OUTER_BOUND( '', #161, .T. );
#99 = PLANE( '', #162 );
#100 = FACE_BOUND( '', #163, .T. );
#101 = FACE_OUTER_BOUND( '', #164, .T. );
#102 = CONICAL_SURFACE( '', #165, 4.86500000000000, 0.785398163397449 );
#103 = FACE_OUTER_BOUND( '', #166, .T. );
#104 = FACE_OUTER_BOUND( '', #167, .T. );
#105 = CYLINDRICAL_SURFACE( '', #168, 4.86500000000000 );
#106 = FACE_OUTER_BOUND( '', #169, .T. );
#107 = FACE_BOUND( '', #170, .T. );
#108 = PLANE( '', #171 );
#109 = FACE_OUTER_BOUND( '', #172, .T. );
#110 = FACE_OUTER_BOUND( '', #173, .T. );
#111 = CYLINDRICAL_SURFACE( '', #174, 2.06700000000000 );
#112 = FACE_BOUND( '', #175, .T. );
#113 = FACE_OUTER_BOUND( '', #176, .T. );
#114 = CONICAL_SURFACE( '', #177, 2.06700000000000, 0.785398163397448 );
#115 = FACE_OUTER_BOUND( '', #178, .T. );
#116 = FACE_BOUND( '', #179, .T. );
#117 = PLANE( '', #180 );
#118 = FACE_OUTER_BOUND( '', #181, .T. );
#119 = FACE_OUTER_BOUND( '', #182, .T. );
#120 = CYLINDRICAL_SURFACE( '', #183, 2.00000000000000 );
#121 = FACE_OUTER_BOUND( '', #184, .T. );
#122 = FACE_OUTER_BOUND( '', #185, .T. );
#123 = CYLINDRICAL_SURFACE( '', #186, 3.99999999999999 );
#124 = FACE_OUTER_BOUND( '', #187, .T. );
#125 = FACE_BOUND( '', #188, .T. );
#126 = PLANE( '', #189 );
#127 = FACE_OUTER_BOUND( '', #190, .T. );
#128 = FACE_OUTER_BOUND( '', #191, .T. );
#129 = CYLINDRICAL_SURFACE( '', #192, 3.00000000000000 );
#130 = FACE_BOUND( '', #193, .T. );
#131 = FACE_OUTER_BOUND( '', #194, .T. );
#132 = PLANE( '', #195 );
#133 = FACE_OUTER_BOUND( '', #196, .T. );
#134 = FACE_OUTER_BOUND( '', #197, .T. );
#135 = CYLINDRICAL_SURFACE( '', #198, 3.75000000000000 );
#136 = FACE_OUTER_BOUND( '', #199, .T. );
#137 = FACE_BOUND( '', #200, .T. );
#138 = PLANE( '', #201 );
#139 = FACE_OUTER_BOUND( '', #202, .T. );
#140 = FACE_OUTER_BOUND( '', #203, .T. );
#141 = CYLINDRICAL_SURFACE( '', #204, 3.25000000000000 );
#142 = FACE_BOUND( '', #205, .T. );
#143 = FACE_OUTER_BOUND( '', #206, .T. );
#144 = PLANE( '', #207 );
#145 = FACE_OUTER_BOUND( '', #208, .T. );
#146 = FACE_OUTER_BOUND( '', #209, .T. );
#147 = CYLINDRICAL_SURFACE( '', #210, 7.50000000000000 );
#148 = FACE_BOUND( '', #211, .T. );
#149 = FACE_OUTER_BOUND( '', #212, .T. );
#150 = CONICAL_SURFACE( '', #213, 7.50000000000000, 0.785398163397449 );
#151 = FACE_OUTER_BOUND( '', #214, .T. );
#152 = FACE_BOUND( '', #215, .T. );
#153 = CONICAL_SURFACE( '', #216, 3.69999999999999, 0.785398163397448 );
#154 = FACE_OUTER_BOUND( '', #217, .T. );
#155 = FACE_OUTER_BOUND( '', #218, .T. );
#156 = CYLINDRICAL_SURFACE( '', #219, 2.50000000000000 );
#157 = FACE_OUTER_BOUND( '', #220, .T. );
#158 = FACE_BOUND( '', #221, .T. );
#159 = PLANE( '', #222 );
#160 = EDGE_LOOP( '', ( #223 ) );
#161 = EDGE_LOOP( '', ( #224 ) );
#162 = AXIS2_PLACEMENT_3D( '', #225, #226, #227 );
#163 = EDGE_LOOP( '', ( #228 ) );
#164 = EDGE_LOOP( '', ( #229 ) );
#165 = AXIS2_PLACEMENT_3D( '', #230, #231, #232 );
#166 = EDGE_LOOP( '', ( #233 ) );
#167 = EDGE_LOOP( '', ( #234 ) );
#168 = AXIS2_PLACEMENT_3D( '', #235, #236, #237 );
#169 = EDGE_LOOP( '', ( #238 ) );
#170 = EDGE_LOOP( '', ( #239 ) );
#171 = AXIS2_PLACEMENT_3D( '', #240, #241, #242 );
#172 = EDGE_LOOP( '', ( #243 ) );
#173 = EDGE_LOOP( '', ( #244 ) );
#174 = AXIS2_PLACEMENT_3D( '', #245, #246, #247 );
#175 = EDGE_LOOP( '', ( #248 ) );
#176 = EDGE_LOOP( '', ( #249 ) );
#177 = AXIS2_PLACEMENT_3D( '', #250, #251, #252 );
#178 = EDGE_LOOP( '', ( #253 ) );
#179 = EDGE_LOOP( '', ( #254 ) );
#180 = AXIS2_PLACEMENT_3D( '', #255, #256, #257 );
#181 = EDGE_LOOP( '', ( #258 ) );
#182 = EDGE_LOOP( '', ( #259 ) );
#183 = AXIS2_PLACEMENT_3D( '', #260, #261, #262 );
#184 = EDGE_LOOP( '', ( #263 ) );
#185 = EDGE_LOOP( '', ( #264 ) );
#186 = AXIS2_PLACEMENT_3D( '', #265, #266, #267 );
#187 = EDGE_LOOP( '', ( #268 ) );
#188 = EDGE_LOOP( '', ( #269 ) );
#189 = AXIS2_PLACEMENT_3D( '', #270, #271, #272 );
#190 = EDGE_LOOP( '', ( #273 ) );
#191 = EDGE_LOOP( '', ( #274 ) );
#192 = AXIS2_PLACEMENT_3D( '', #275, #276, #277 );
#193 = EDGE_LOOP( '', ( #278 ) );
#194 = EDGE_LOOP( '', ( #279 ) );
#195 = AXIS2_PLACEMENT_3D( '', #280, #281, #282 );
#196 = EDGE_LOOP( '', ( #283 ) );
#197 = EDGE_LOOP( '', ( #284 ) );
#198 = AXIS2_PLACEMENT_3D( '', #285, #286, #287 );
#199 = EDGE_LOOP( '', ( #288 ) );
#200 = EDGE_LOOP( '', ( #289 ) );
#201 = AXIS2_PLACEMENT_3D( '', #290, #291, #292 );
#202 = EDGE_LOOP( '', ( #293 ) );
#203 = EDGE_LOOP( '', ( #294 ) );
#204 = AXIS2_PLACEMENT_3D( '', #295, #296, #297 );
#205 = EDGE_LOOP( '', ( #298 ) );
#206 = EDGE_LOOP( '', ( #299 ) );
#207 = AXIS2_PLACEMENT_3D( '', #300, #301, #302 );
#208 = EDGE_LOOP( '', ( #303 ) );
#209 = EDGE_LOOP( '', ( #304 ) );
#210 = AXIS2_PLACEMENT_3D( '', #305, #306, #307 );
#211 = EDGE_LOOP( '', ( #308 ) );
#212 = EDGE_LOOP( '', ( #309 ) );
#213 = AXIS2_PLACEMENT_3D( '', #310, #311, #312 );
#214 = EDGE_LOOP( '', ( #313 ) );
#215 = EDGE_LOOP( '', ( #314 ) );
#216 = AXIS2_PLACEMENT_3D( '', #315, #316, #317 );
#217 = EDGE_LOOP( '', ( #318 ) );
#218 = EDGE_LOOP( '', ( #319 ) );
#219 = AXIS2_PLACEMENT_3D( '', #320, #321, #322 );
#220 = EDGE_LOOP( '', ( #323 ) );
#221 = EDGE_LOOP( '', ( #324 ) );
#222 = AXIS2_PLACEMENT_3D( '', #325, #326, #327 );
#223 = ORIENTED_EDGE( '', *, *, #328, .T. );
#224 = ORIENTED_EDGE( '', *, *, #329, .F. );
#225 = CARTESIAN_POINT( '', ( 0.000000000000000, 0.000000000000000, 3.14417681343896E-016 ) );
#226 = DIRECTION( '', ( 0.000000000000000, 0.000000000000000, -1.00000000000000 ) );
#227 = DIRECTION( '', ( -1.00000000000000, 0.000000000000000, 0.000000000000000 ) );
#228 = ORIENTED_EDGE( '', *, *, #329, .T. );
#229 = ORIENTED_EDGE( '', *, *, #330, .F. );
#230 = CARTESIAN_POINT( '', ( 0.000000000000000, 0.000000000000000, -0.514999999999996 ) );
#231 = DIRECTION( '', ( 0.000000000000000, 0.000000000000000, -1.00000000000000 ) );
#232 = DIRECTION( '', ( -1.00000000000000, 0.000000000000000, 0.000000000000000 ) );
#233 = ORIENTED_EDGE( '', *, *, #331, .F. );
#234 = ORIENTED_EDGE( '', *, *, #330, .T. );
#235 = CARTESIAN_POINT( '', ( 0.000000000000000, 0.000000000000000, -9.50000000000000 ) );
#236 = DIRECTION( '', ( 0.000000000000000, 0.000000000000000, 1.00000000000000 ) );
#237 = DIRECTION( '', ( -1.00000000000000, 0.000000000000000, 0.000000000000000 ) );
#238 = ORIENTED_EDGE( '', *, *, #332, .T. );
#239 = ORIENTED_EDGE( '', *, *, #331, .T. );
#240 = CARTESIAN_POINT( '', ( -2.97885495567293E-016, -4.86500000000000, -6.00000000000000 ) );
#241 = DIRECTION( '', ( 0.000000000000000, 0.000000000000000, -1.00000000000000 ) );
#242 = DIRECTION( '', ( -1.00000000000000, 0.000000000000000, 0.000000000000000 ) );
#243 = ORIENTED_EDGE( '', *, *, #333, .T. );
#244 = ORIENTED_EDGE( '', *, *, #328, .F. );
#245 = CARTESIAN_POINT( '', ( 0.000000000000000, 0.000000000000000, 3.14417681343896E-016 ) );
#246 = DIRECTION( '', ( 0.000000000000000, 0.000000000000000, 1.00000000000000 ) );
#247 = DIRECTION( '', ( 0.000000000000000, -1.00000000000000, 0.000000000000000 ) );
#248 = ORIENTED_EDGE( '', *, *, #334, .T. );
#249 = ORIENTED_EDGE( '', *, *, #333, .F. );
#250 = CARTESIAN_POINT( '', ( 0.000000000000000, 0.000000000000000, -5.00000000000000 ) );
#251 = DIRECTION( '', ( 0.000000000000000, 0.000000000000000, 1.00000000000000 ) );
#252 = DIRECTION( '', ( 0.000000000000000, 1.00000000000000, 0.000000000000000 ) );
#253 = ORIENTED_EDGE( '', *, *, #335, .T. );
#254 = ORIENTED_EDGE( '', *, *, #336, .T. );
#255 = CARTESIAN_POINT( '', ( -2.44921270764475E-016, -3.99999999999999, -12.7000000000000 ) );
#256 = DIRECTION( '', ( 0.000000000000000, 0.000000000000000, 1.00000000000000 ) );
#257 = DIRECTION( '', ( 1.00000000000000, 0.000000000000000, 0.000000000000000 ) );
#258 = ORIENTED_EDGE( '', *, *, #334, .F. );
#259 = ORIENTED_EDGE( '', *, *, #337, .T. );
#260 = CARTESIAN_POINT( '', ( 0.000000000000000, 0.000000000000000, 16.7242795648326 ) );
#261 = DIRECTION( '', ( 0.000000000000000, 0.000000000000000, 1.00000000000000 ) );
#262 = DIRECTION( '', ( -1.00000000000000, 0.000000000000000, 0.000000000000000 ) );
#263 = ORIENTED_EDGE( '', *, *, #338, .T. );
#264 = ORIENTED_EDGE( '', *, *, #339, .T. );
#265 = CARTESIAN_POINT( '', ( 0.000000000000000, 0.000000000000000, -9.50000000000000 ) );
#266 = DIRECTION( '', ( 0.000000000000000, 0.000000000000000, 1.00000000000000 ) );
#267 = DIRECTION( '', ( -1.00000000000000, 0.000000000000000, 0.000000000000000 ) );
#268 = ORIENTED_EDGE( '', *, *, #339, .F. );
#269 = ORIENTED_EDGE( '', *, *, #340, .T. );
#270 = CARTESIAN_POINT( '', ( -1.83690953073356E-016, -2.99999999999999, -12.2000000000000 ) );
#271 = DIRECTION( '', ( 0.000000000000000, 0.000000000000000, -1.00000000000000 ) );
#272 = DIRECTION( '', ( -1.00000000000000, 0.000000000000000, 0.000000000000000 ) );
#273 = ORIENTED_EDGE( '', *, *, #340, .F. );
#274 = ORIENTED_EDGE( '', *, *, #341, .T. );
#275 = CARTESIAN_POINT( '', ( 0.000000000000000, 0.000000000000000, -9.50000000000000 ) );
#276 = DIRECTION( '', ( 0.000000000000000, 0.000000000000000, 1.00000000000000 ) );
#277 = DIRECTION( '', ( -1.00000000000000, 0.000000000000000, 0.000000000000000 ) );
#278 = ORIENTED_EDGE( '', *, *, #341, .F. );
#279 = ORIENTED_EDGE( '', *, *, #342, .T. );
#280 = CARTESIAN_POINT( '', ( -2.29613691341695E-016, -3.75000000000000, -9.00000000000000 ) );
#281 = DIRECTION( '', ( 0.000000000000000, 0.000000000000000, 1.00000000000000 ) );
#282 = DIRECTION( '', ( 1.00000000000000, 0.000000000000000, 0.000000000000000 ) );
#283 = ORIENTED_EDGE( '', *, *, #342, .F. );
#284 = ORIENTED_EDGE( '', *, *, #343, .T. );
#285 = CARTESIAN_POINT( '', ( 0.000000000000000, 0.000000000000000, -9.50000000000000 ) );
#286 = DIRECTION( '', ( 0.000000000000000, 0.000000000000000, 1.00000000000000 ) );
#287 = DIRECTION( '', ( -1.00000000000000, 0.000000000000000, 0.000000000000000 ) );
#288 = ORIENTED_EDGE( '', *, *, #343, .F. );
#289 = ORIENTED_EDGE( '', *, *, #344, .T. );
#290 = CARTESIAN_POINT( '', ( -1.98998532496136E-016, -3.25000000000000, -8.50000000000000 ) );
#291 = DIRECTION( '', ( 0.000000000000000, 0.000000000000000, -1.00000000000000 ) );
#292 = DIRECTION( '', ( -1.00000000000000, 0.000000000000000, 0.000000000000000 ) );
#293 = ORIENTED_EDGE( '', *, *, #344, .F. );
#294 = ORIENTED_EDGE( '', *, *, #345, .T. );
#295 = CARTESIAN_POINT( '', ( 0.000000000000000, 0.000000000000000, -9.50000000000000 ) );
#296 = DIRECTION( '', ( 0.000000000000000, 0.000000000000000, 1.00000000000000 ) );
#297 = DIRECTION( '', ( -1.00000000000000, 0.000000000000000, 0.000000000000000 ) );
#298 = ORIENTED_EDGE( '', *, *, #345, .F. );
#299 = ORIENTED_EDGE( '', *, *, #346, .T. );
#300 = CARTESIAN_POINT( '', ( -4.59227382683392E-016, -7.50000000000000, -7.50000000000000 ) );
#301 = DIRECTION( '', ( 0.000000000000000, 0.000000000000000, 1.00000000000000 ) );
#302 = DIRECTION( '', ( 1.00000000000000, 0.000000000000000, 0.000000000000000 ) );
#303 = ORIENTED_EDGE( '', *, *, #347, .T. );
#304 = ORIENTED_EDGE( '', *, *, #346, .F. );
#305 = CARTESIAN_POINT( '', ( 0.000000000000000, 0.000000000000000, -9.50000000000000 ) );
#306 = DIRECTION( '', ( 0.000000000000000, 0.000000000000000, 1.00000000000000 ) );
#307 = DIRECTION( '', ( -1.00000000000000, 0.000000000000000, 0.000000000000000 ) );
#308 = ORIENTED_EDGE( '', *, *, #332, .F. );
#309 = ORIENTED_EDGE( '', *, *, #347, .F. );
#310 = CARTESIAN_POINT( '', ( 0.000000000000000, 0.000000000000000, -6.50000000000000 ) );
#311 = DIRECTION( '', ( 0.000000000000000, 0.000000000000000, -1.00000000000000 ) );
#312 = DIRECTION( '', ( -1.00000000000000, 0.000000000000000, 0.000000000000000 ) );
#313 = ORIENTED_EDGE( '', *, *, #338, .F. );
#314 = ORIENTED_EDGE( '', *, *, #335, .F. );
#315 = CARTESIAN_POINT( '', ( 0.000000000000000, 0.000000000000000, -12.7000000000000 ) );
#316 = DIRECTION( '', ( 0.000000000000000, 0.000000000000000, 1.00000000000000 ) );
#317 = DIRECTION( '', ( 1.00000000000000, 0.000000000000000, 0.000000000000000 ) );
#318 = ORIENTED_EDGE( '', *, *, #348, .F. );
#319 = ORIENTED_EDGE( '', *, *, #336, .F. );
#320 = CARTESIAN_POINT( '', ( 0.000000000000000, 0.000000000000000, -12.7000000000000 ) );
#321 = DIRECTION( '', ( 0.000000000000000, 0.000000000000000, -1.00000000000000 ) );
#322 = DIRECTION( '', ( 0.000000000000000, 1.00000000000000, 0.000000000000000 ) );
#323 = ORIENTED_EDGE( '', *, *, #348, .T. );
#324 = ORIENTED_EDGE( '', *, *, #337, .F. );
#325 = CARTESIAN_POINT( '', ( 0.000000000000000, 0.000000000000000, -8.00000000000000 ) );
#326 = DIRECTION( '', ( 0.000000000000000, 0.000000000000000, 1.00000000000000 ) );
#327 = DIRECTION( '', ( 1.00000000000000, 0.000000000000000, 0.000000000000000 ) );
#328 = EDGE_CURVE( '', #349, #349, #350, .T. );
#329 = EDGE_CURVE( '', #351, #351, #352, .T. );
#330 = EDGE_CURVE( '', #353, #353, #354, .T. );
#331 = EDGE_CURVE( '', #355, #355, #356, .T. );
#332 = EDGE_CURVE( '', #357, #357, #358, .F. );
#333 = EDGE_CURVE( '', #359, #359, #360, .T. );
#334 = EDGE_CURVE( '', #361, #361, #362, .F. );
#335 = EDGE_CURVE( '', #363, #363, #364, .F. );
#336 = EDGE_CURVE( '', #365, #365, #366, .T. );
#337 = EDGE_CURVE( '', #367, #367, #368, .F. );
#338 = EDGE_CURVE( '', #369, #369, #370, .T. );
#339 = EDGE_CURVE( '', #371, #371, #372, .T. );
#340 = EDGE_CURVE( '', #373, #373, #374, .T. );
#341 = EDGE_CURVE( '', #375, #375, #376, .T. );
#342 = EDGE_CURVE( '', #377, #377, #378, .T. );
#343 = EDGE_CURVE( '', #379, #379, #380, .T. );
#344 = EDGE_CURVE( '', #381, #381, #382, .T. );
#345 = EDGE_CURVE( '', #383, #383, #384, .T. );
#346 = EDGE_CURVE( '', #385, #385, #386, .T. );
#347 = EDGE_CURVE( '', #387, #387, #388, .T. );
#348 = EDGE_CURVE( '', #389, #389, #390, .T. );
#349 = VERTEX_POINT( '', #391 );
#350 = CIRCLE( '', #392, 2.06700000000000 );
#351 = VERTEX_POINT( '', #393 );
#352 = CIRCLE( '', #394, 4.35000000000000 );
#353 = VERTEX_POINT( '', #395 );
#354 = CIRCLE( '', #396, 4.86500000000000 );
#355 = VERTEX_POINT( '', #397 );
#356 = CIRCLE( '', #398, 4.86500000000000 );
#357 = VERTEX_POINT( '', #399 );
#358 = CIRCLE( '', #400, 7.00000000000000 );
#359 = VERTEX_POINT( '', #401 );
#360 = CIRCLE( '', #402, 2.06700000000000 );
#361 = VERTEX_POINT( '', #403 );
#362 = CIRCLE( '', #404, 2.00000000000000 );
#363 = VERTEX_POINT( '', #405 );
#364 = CIRCLE( '', #406, 3.69999999999999 );
#365 = VERTEX_POINT( '', #407 );
#366 = CIRCLE( '', #408, 2.50000000000000 );
#367 = VERTEX_POINT( '', #409 );
#368 = CIRCLE( '', #410, 2.00000000000000 );
#369 = VERTEX_POINT( '', #411 );
#370 = CIRCLE( '', #412, 3.99999999999999 );
#371 = VERTEX_POINT( '', #413 );
#372 = CIRCLE( '', #414, 4.00000000000000 );
#373 = VERTEX_POINT( '', #415 );
#374 = CIRCLE( '', #416, 2.99999999999999 );
#375 = VERTEX_POINT( '', #417 );
#376 = CIRCLE( '', #418, 3.00000000000000 );
#377 = VERTEX_POINT( '', #419 );
#378 = CIRCLE( '', #420, 3.75000000000000 );
#379 = VERTEX_POINT( '', #421 );
#380 = CIRCLE( '', #422, 3.75000000000000 );
#381 = VERTEX_POINT( '', #423 );
#382 = CIRCLE( '', #424, 3.25000000000000 );
#383 = VERTEX_POINT( '', #425 );
#384 = CIRCLE( '', #426, 3.25000000000000 );
#385 = VERTEX_POINT( '', #427 );
#386 = CIRCLE( '', #428, 7.50000000000000 );
#387 = VERTEX_POINT( '', #429 );
#388 = CIRCLE( '', #430, 7.50000000000000 );
#389 = VERTEX_POINT( '', #431 );
#390 = CIRCLE( '', #432, 2.50000000000000 );
#391 = CARTESIAN_POINT( '', ( 0.000000000000000, -2.06700000000000, 3.14417681343896E-016 ) );
#392 = AXIS2_PLACEMENT_3D( '', #433, #434, #435 );
#393 = CARTESIAN_POINT( '', ( -4.35000000000000, 0.000000000000000, 0.000000000000000 ) );
#394 = AXIS2_PLACEMENT_3D( '', #436, #437, #438 );
#395 = CARTESIAN_POINT( '', ( -4.86500000000000, 0.000000000000000, -0.514999999999996 ) );
#396 = AXIS2_PLACEMENT_3D( '', #439, #440, #441 );
#397 = CARTESIAN_POINT( '', ( -4.86500000000000, 0.000000000000000, -6.00000000000000 ) );
#398 = AXIS2_PLACEMENT_3D( '', #442, #443, #444 );
#399 = CARTESIAN_POINT( '', ( -7.00000000000000, 0.000000000000000, -6.00000000000000 ) );
#400 = AXIS2_PLACEMENT_3D( '', #445, #446, #447 );
#401 = CARTESIAN_POINT( '', ( 0.000000000000000, 2.06700000000000, -5.00000000000000 ) );
#402 = AXIS2_PLACEMENT_3D( '', #448, #449, #450 );
#403 = CARTESIAN_POINT( '', ( 2.00000000000000, 0.000000000000000, -5.06700000000000 ) );
#404 = AXIS2_PLACEMENT_3D( '', #451, #452, #453 );
#405 = CARTESIAN_POINT( '', ( 3.69999999999999, 0.000000000000000, -12.7000000000000 ) );
#406 = AXIS2_PLACEMENT_3D( '', #454, #455, #456 );
#407 = CARTESIAN_POINT( '', ( 0.000000000000000, 2.50000000000000, -12.7000000000000 ) );
#408 = AXIS2_PLACEMENT_3D( '', #457, #458, #459 );
#409 = CARTESIAN_POINT( '', ( 2.00000000000000, 0.000000000000000, -8.00000000000000 ) );
#410 = AXIS2_PLACEMENT_3D( '', #460, #461, #462 );
#411 = CARTESIAN_POINT( '', ( 3.99999999999999, 0.000000000000000, -12.4000000000000 ) );
#412 = AXIS2_PLACEMENT_3D( '', #463, #464, #465 );
#413 = CARTESIAN_POINT( '', ( -4.00000000000000, 0.000000000000000, -12.2000000000000 ) );
#414 = AXIS2_PLACEMENT_3D( '', #466, #467, #468 );
#415 = CARTESIAN_POINT( '', ( -2.99999999999999, 0.000000000000000, -12.2000000000000 ) );
#416 = AXIS2_PLACEMENT_3D( '', #469, #470, #471 );
#417 = CARTESIAN_POINT( '', ( -3.00000000000000, 0.000000000000000, -9.00000000000000 ) );
#418 = AXIS2_PLACEMENT_3D( '', #472, #473, #474 );
#419 = CARTESIAN_POINT( '', ( -3.75000000000000, 0.000000000000000, -9.00000000000000 ) );
#420 = AXIS2_PLACEMENT_3D( '', #475, #476, #477 );
#421 = CARTESIAN_POINT( '', ( -3.75000000000000, 0.000000000000000, -8.50000000000000 ) );
#422 = AXIS2_PLACEMENT_3D( '', #478, #479, #480 );
#423 = CARTESIAN_POINT( '', ( -3.25000000000000, 0.000000000000000, -8.50000000000000 ) );
#424 = AXIS2_PLACEMENT_3D( '', #481, #482, #483 );
#425 = CARTESIAN_POINT( '', ( -3.25000000000000, 0.000000000000000, -7.50000000000000 ) );
#426 = AXIS2_PLACEMENT_3D( '', #484, #485, #486 );
#427 = CARTESIAN_POINT( '', ( -7.50000000000000, 0.000000000000000, -7.50000000000000 ) );
#428 = AXIS2_PLACEMENT_3D( '', #487, #488, #489 );
#429 = CARTESIAN_POINT( '', ( -7.50000000000000, 0.000000000000000, -6.50000000000000 ) );
#430 = AXIS2_PLACEMENT_3D( '', #490, #491, #492 );
#431 = CARTESIAN_POINT( '', ( 0.000000000000000, 2.50000000000000, -8.00000000000000 ) );
#432 = AXIS2_PLACEMENT_3D( '', #493, #494, #495 );
#433 = CARTESIAN_POINT( '', ( 0.000000000000000, 0.000000000000000, 3.14417681343896E-016 ) );
#434 = DIRECTION( '', ( 0.000000000000000, 0.000000000000000, -1.00000000000000 ) );
#435 = DIRECTION( '', ( 0.000000000000000, -1.00000000000000, 0.000000000000000 ) );
#436 = CARTESIAN_POINT( '', ( 0.000000000000000, 0.000000000000000, 0.000000000000000 ) );
#437 = DIRECTION( '', ( 0.000000000000000, 0.000000000000000, -1.00000000000000 ) );
#438 = DIRECTION( '', ( -1.00000000000000, 0.000000000000000, 0.000000000000000 ) );
#439 = CARTESIAN_POINT( '', ( 0.000000000000000, 0.000000000000000, -0.514999999999996 ) );
#440 = DIRECTION( '', ( 0.000000000000000, 0.000000000000000, -1.00000000000000 ) );
#441 = DIRECTION( '', ( -1.00000000000000, 0.000000000000000, 0.000000000000000 ) );
#442 = CARTESIAN_POINT( '', ( 0.000000000000000, 0.000000000000000, -6.00000000000000 ) );
#443 = DIRECTION( '', ( 0.000000000000000, 0.000000000000000, -1.00000000000000 ) );
#444 = DIRECTION( '', ( -1.00000000000000, 0.000000000000000, 0.000000000000000 ) );
#445 = CARTESIAN_POINT( '', ( 0.000000000000000, 0.000000000000000, -6.00000000000000 ) );
#446 = DIRECTION( '', ( 0.000000000000000, 0.000000000000000, -1.00000000000000 ) );
#447 = DIRECTION( '', ( -1.00000000000000, 0.000000000000000, 0.000000000000000 ) );
#448 = CARTESIAN_POINT( '', ( 0.000000000000000, 0.000000000000000, -5.00000000000000 ) );
#449 = DIRECTION( '', ( 0.000000000000000, 0.000000000000000, -1.00000000000000 ) );
#450 = DIRECTION( '', ( 0.000000000000000, 1.00000000000000, 0.000000000000000 ) );
#451 = CARTESIAN_POINT( '', ( 0.000000000000000, 0.000000000000000, -5.06700000000000 ) );
#452 = DIRECTION( '', ( 0.000000000000000, 0.000000000000000, 1.00000000000000 ) );
#453 = DIRECTION( '', ( 1.00000000000000, 0.000000000000000, 0.000000000000000 ) );
#454 = CARTESIAN_POINT( '', ( 0.000000000000000, 0.000000000000000, -12.7000000000000 ) );
#455 = DIRECTION( '', ( 0.000000000000000, 0.000000000000000, 1.00000000000000 ) );
#456 = DIRECTION( '', ( 1.00000000000000, 0.000000000000000, 0.000000000000000 ) );
#457 = CARTESIAN_POINT( '', ( 0.000000000000000, 0.000000000000000, -12.7000000000000 ) );
#458 = DIRECTION( '', ( 0.000000000000000, 0.000000000000000, 1.00000000000000 ) );
#459 = DIRECTION( '', ( 0.000000000000000, 1.00000000000000, 0.000000000000000 ) );
#460 = CARTESIAN_POINT( '', ( 0.000000000000000, 0.000000000000000, -8.00000000000000 ) );
#461 = DIRECTION( '', ( 0.000000000000000, 0.000000000000000, 1.00000000000000 ) );
#462 = DIRECTION( '', ( 1.00000000000000, 0.000000000000000, 0.000000000000000 ) );
#463 = CARTESIAN_POINT( '', ( 0.000000000000000, 0.000000000000000, -12.4000000000000 ) );
#464 = DIRECTION( '', ( 0.000000000000000, 0.000000000000000, 1.00000000000000 ) );
#465 = DIRECTION( '', ( 1.00000000000000, 0.000000000000000, 0.000000000000000 ) );
#466 = CARTESIAN_POINT( '', ( 0.000000000000000, 0.000000000000000, -12.2000000000000 ) );
#467 = DIRECTION( '', ( 0.000000000000000, 0.000000000000000, -1.00000000000000 ) );
#468 = DIRECTION( '', ( -1.00000000000000, 0.000000000000000, 0.000000000000000 ) );
#469 = CARTESIAN_POINT( '', ( 0.000000000000000, 0.000000000000000, -12.2000000000000 ) );
#470 = DIRECTION( '', ( 0.000000000000000, 0.000000000000000, -1.00000000000000 ) );
#471 = DIRECTION( '', ( -1.00000000000000, 0.000000000000000, 0.000000000000000 ) );
#472 = CARTESIAN_POINT( '', ( 0.000000000000000, 0.000000000000000, -9.00000000000000 ) );
#473 = DIRECTION( '', ( 0.000000000000000, 0.000000000000000, -1.00000000000000 ) );
#474 = DIRECTION( '', ( -1.00000000000000, 0.000000000000000, 0.000000000000000 ) );
#475 = CARTESIAN_POINT( '', ( 0.000000000000000, 0.000000000000000, -9.00000000000000 ) );
#476 = DIRECTION( '', ( 0.000000000000000, 0.000000000000000, -1.00000000000000 ) );
#477 = DIRECTION( '', ( -1.00000000000000, 0.000000000000000, 0.000000000000000 ) );
#478 = CARTESIAN_POINT( '', ( 0.000000000000000, 0.000000000000000, -8.50000000000000 ) );
#479 = DIRECTION( '', ( 0.000000000000000, 0.000000000000000, -1.00000000000000 ) );
#480 = DIRECTION( '', ( -1.00000000000000, 0.000000000000000, 0.000000000000000 ) );
#481 = CARTESIAN_POINT( '', ( 0.000000000000000, 0.000000000000000, -8.50000000000000 ) );
#482 = DIRECTION( '', ( 0.000000000000000, 0.000000000000000, -1.00000000000000 ) );
#483 = DIRECTION( '', ( -1.00000000000000, 0.000000000000000, 0.000000000000000 ) );
#484 = CARTESIAN_POINT( '', ( 0.000000000000000, 0.000000000000000, -7.50000000000000 ) );
#485 = DIRECTION( '', ( 0.000000000000000, 0.000000000000000, -1.00000000000000 ) );
#486 = DIRECTION( '', ( -1.00000000000000, 0.000000000000000, 0.000000000000000 ) );
#487 = CARTESIAN_POINT( '', ( 0.000000000000000, 0.000000000000000, -7.50000000000000 ) );
#488 = DIRECTION( '', ( 0.000000000000000, 0.000000000000000, -1.00000000000000 ) );
#489 = DIRECTION( '', ( -1.00000000000000, 0.000000000000000, 0.000000000000000 ) );
#490 = CARTESIAN_POINT( '', ( 0.000000000000000, 0.000000000000000, -6.50000000000000 ) );
#491 = DIRECTION( '', ( 0.000000000000000, 0.000000000000000, -1.00000000000000 ) );
#492 = DIRECTION( '', ( -1.00000000000000, 0.000000000000000, 0.000000000000000 ) );
#493 = CARTESIAN_POINT( '', ( 0.000000000000000, 0.000000000000000, -8.00000000000000 ) );
#494 = DIRECTION( '', ( 0.000000000000000, 0.000000000000000, -1.00000000000000 ) );
#495 = DIRECTION( '', ( 0.000000000000000, 1.00000000000000, 0.000000000000000 ) );
ENDSEC;
END-ISO-10303-21;
