ISO-10303-21;
HEADER;
FILE_DESCRIPTION( ( 'Unknown' ), '1' );
FILE_NAME( 'X:/RnD/Aktuerade ISMer/1. Sugkoppar/Djup/D15-2/3150135/SE-0417033.stp', 'Unknown', ( 'Unknown' ), ( 'Unknown' ), 'PSStep 17.0.49', 'Unknown', '  ' );
FILE_SCHEMA( ( 'AUTOMOTIVE_DESIGN { 1 0 10303 214 1 1 1 1 }' ) );
ENDSEC;
DATA;
#1 = MECHANICAL_DESIGN_GEOMETRIC_PRESENTATION_REPRESENTATION( ' ', ( #10, #11, #12, #13, #14, #15, #16, #17, #18, #19, #20, #21, #22, #23 ), #6 );
#2 = PRODUCT_DEFINITION_CONTEXT( '', #24, 'design' );
#3 = APPLICATION_PROTOCOL_DEFINITION( 'international standard', 'automotive_design', 2001, #24 );
#4 = PRODUCT_CATEGORY_RELATIONSHIP( 'NONE', 'NONE', #25, #26 );
#5 = SHAPE_DEFINITION_REPRESENTATION( #27, #28 );
#6 =  ( GEOMETRIC_REPRESENTATION_CONTEXT( 3 )GLOBAL_UNCERTAINTY_ASSIGNED_CONTEXT( ( #31 ) )GLOBAL_UNIT_ASSIGNED_CONTEXT( ( #33, #34, #35 ) )REPRESENTATION_CONTEXT( 'NONE', 'WORKSPACE' ) );
#10 = STYLED_ITEM( '', ( #37 ), #38 );
#11 = STYLED_ITEM( '', ( #39 ), #40 );
#12 = STYLED_ITEM( '', ( #41 ), #42 );
#13 = STYLED_ITEM( '', ( #43 ), #44 );
#14 = STYLED_ITEM( '', ( #45 ), #46 );
#15 = STYLED_ITEM( '', ( #47 ), #48 );
#16 = STYLED_ITEM( '', ( #49 ), #50 );
#17 = STYLED_ITEM( '', ( #51 ), #52 );
#18 = STYLED_ITEM( '', ( #53 ), #54 );
#19 = STYLED_ITEM( '', ( #55 ), #56 );
#20 = STYLED_ITEM( '', ( #57 ), #58 );
#21 = STYLED_ITEM( '', ( #59 ), #60 );
#22 = STYLED_ITEM( '', ( #61 ), #62 );
#23 = STYLED_ITEM( '', ( #63 ), #64 );
#24 = APPLICATION_CONTEXT( 'core data for automotive mechanical design processes' );
#25 = PRODUCT_CATEGORY( 'part', 'NONE' );
#26 = PRODUCT_RELATED_PRODUCT_CATEGORY( 'detail', ' ', ( #65 ) );
#27 = PRODUCT_DEFINITION_SHAPE( 'NONE', 'NONE', #66 );
#28 = ADVANCED_BREP_SHAPE_REPRESENTATION( '1', ( #67, #68 ), #6 );
#31 = UNCERTAINTY_MEASURE_WITH_UNIT( LENGTH_MEASURE( 0.00100000000000000 ), #33, '', '' );
#33 =  ( CONVERSION_BASED_UNIT( 'MILLIMETRE', #71 )LENGTH_UNIT(  )NAMED_UNIT( #74 ) );
#34 =  ( NAMED_UNIT( #76 )PLANE_ANGLE_UNIT(  )SI_UNIT( $, .RADIAN. ) );
#35 =  ( NAMED_UNIT( #76 )SI_UNIT( $, .STERADIAN. )SOLID_ANGLE_UNIT(  ) );
#37 = PRESENTATION_STYLE_ASSIGNMENT( ( #82 ) );
#38 = ADVANCED_FACE( '', ( #83 ), #84, .T. );
#39 = PRESENTATION_STYLE_ASSIGNMENT( ( #85 ) );
#40 = ADVANCED_FACE( '', ( #86, #87 ), #88, .T. );
#41 = PRESENTATION_STYLE_ASSIGNMENT( ( #89 ) );
#42 = ADVANCED_FACE( '', ( #90 ), #91, .T. );
#43 = PRESENTATION_STYLE_ASSIGNMENT( ( #92 ) );
#44 = ADVANCED_FACE( '', ( #93, #94 ), #95, .F. );
#45 = PRESENTATION_STYLE_ASSIGNMENT( ( #96 ) );
#46 = ADVANCED_FACE( '', ( #97, #98 ), #99, .F. );
#47 = PRESENTATION_STYLE_ASSIGNMENT( ( #100 ) );
#48 = ADVANCED_FACE( '', ( #101 ), #102, .T. );
#49 = PRESENTATION_STYLE_ASSIGNMENT( ( #103 ) );
#50 = ADVANCED_FACE( '', ( #104 ), #105, .T. );
#51 = PRESENTATION_STYLE_ASSIGNMENT( ( #106 ) );
#52 = ADVANCED_FACE( '', ( #107 ), #108, .F. );
#53 = PRESENTATION_STYLE_ASSIGNMENT( ( #109 ) );
#54 = ADVANCED_FACE( '', ( #110, #111 ), #112, .T. );
#55 = PRESENTATION_STYLE_ASSIGNMENT( ( #113 ) );
#56 = ADVANCED_FACE( '', ( #114, #115, #116 ), #117, .T. );
#57 = PRESENTATION_STYLE_ASSIGNMENT( ( #118 ) );
#58 = ADVANCED_FACE( '', ( #119, #120 ), #121, .T. );
#59 = PRESENTATION_STYLE_ASSIGNMENT( ( #122 ) );
#60 = ADVANCED_FACE( '', ( #123 ), #124, .F. );
#61 = PRESENTATION_STYLE_ASSIGNMENT( ( #125 ) );
#62 = ADVANCED_FACE( '', ( #126 ), #127, .T. );
#63 = PRESENTATION_STYLE_ASSIGNMENT( ( #128 ) );
#64 = ADVANCED_FACE( '', ( #129, #130 ), #131, .F. );
#65 = PRODUCT( '1', '1', 'PART-1-DESC', ( #132 ) );
#66 = PRODUCT_DEFINITION( 'NONE', 'NONE', #133, #2 );
#67 = MANIFOLD_SOLID_BREP( '1', #134 );
#68 = AXIS2_PLACEMENT_3D( '', #135, #136, #137 );
#71 = LENGTH_MEASURE_WITH_UNIT( LENGTH_MEASURE( 1.00000000000000 ), #138 );
#74 = DIMENSIONAL_EXPONENTS( 1.00000000000000, 0.000000000000000, 0.000000000000000, 0.000000000000000, 0.000000000000000, 0.000000000000000, 0.000000000000000 );
#76 = DIMENSIONAL_EXPONENTS( 0.000000000000000, 0.000000000000000, 0.000000000000000, 0.000000000000000, 0.000000000000000, 0.000000000000000, 0.000000000000000 );
#82 = SURFACE_STYLE_USAGE( .BOTH., #139 );
#83 = FACE_OUTER_BOUND( '', #140, .T. );
#84 = PLANE( '', #141 );
#85 = SURFACE_STYLE_USAGE( .BOTH., #142 );
#86 = FACE_OUTER_BOUND( '', #143, .T. );
#87 = FACE_OUTER_BOUND( '', #144, .T. );
#88 = CYLINDRICAL_SURFACE( '', #145, 4.50000000000000 );
#89 = SURFACE_STYLE_USAGE( .BOTH., #146 );
#90 = FACE_OUTER_BOUND( '', #147, .T. );
#91 = CONICAL_SURFACE( '', #148, 5.40146513979721, 0.528074448426359 );
#92 = SURFACE_STYLE_USAGE( .BOTH., #149 );
#93 = FACE_OUTER_BOUND( '', #150, .T. );
#94 = FACE_OUTER_BOUND( '', #151, .T. );
#95 = CYLINDRICAL_SURFACE( '', #152, 1.90000000000000 );
#96 = SURFACE_STYLE_USAGE( .BOTH., #153 );
#97 = FACE_OUTER_BOUND( '', #154, .T. );
#98 = FACE_BOUND( '', #155, .T. );
#99 = PLANE( '', #156 );
#100 = SURFACE_STYLE_USAGE( .BOTH., #157 );
#101 = FACE_OUTER_BOUND( '', #158, .T. );
#102 = CONICAL_SURFACE( '', #159, 6.57212718800832, 1.04272187836854 );
#103 = SURFACE_STYLE_USAGE( .BOTH., #160 );
#104 = FACE_OUTER_BOUND( '', #161, .T. );
#105 = PLANE( '', #162 );
#106 = SURFACE_STYLE_USAGE( .BOTH., #163 );
#107 = FACE_OUTER_BOUND( '', #164, .T. );
#108 = CONICAL_SURFACE( '', #165, 5.32167104178016, 1.04272187836853 );
#109 = SURFACE_STYLE_USAGE( .BOTH., #166 );
#110 = FACE_OUTER_BOUND( '', #167, .T. );
#111 = FACE_OUTER_BOUND( '', #168, .T. );
#112 = CYLINDRICAL_SURFACE( '', #169, 8.00000000000000 );
#113 = SURFACE_STYLE_USAGE( .BOTH., #170 );
#114 = FACE_BOUND( '', #171, .T. );
#115 = FACE_BOUND( '', #172, .T. );
#116 = FACE_OUTER_BOUND( '', #173, .T. );
#117 = CONICAL_SURFACE( '', #174, 4.50000000000000, 0.528074448426360 );
#118 = SURFACE_STYLE_USAGE( .BOTH., #175 );
#119 = FACE_OUTER_BOUND( '', #176, .T. );
#120 = FACE_OUTER_BOUND( '', #177, .T. );
#121 = TOROIDAL_SURFACE( '', #178, 7.60000000000000, 0.400000000000000 );
#122 = SURFACE_STYLE_USAGE( .BOTH., #179 );
#123 = FACE_OUTER_BOUND( '', #180, .T. );
#124 = PLANE( '', #181 );
#125 = SURFACE_STYLE_USAGE( .BOTH., #182 );
#126 = FACE_OUTER_BOUND( '', #183, .T. );
#127 = PLANE( '', #184 );
#128 = SURFACE_STYLE_USAGE( .BOTH., #185 );
#129 = FACE_OUTER_BOUND( '', #186, .T. );
#130 = FACE_OUTER_BOUND( '', #187, .T. );
#131 = TOROIDAL_SURFACE( '', #188, 6.50000000000000, 2.00000000000000 );
#132 = PRODUCT_CONTEXT( '', #24, 'mechanical' );
#133 = PRODUCT_DEFINITION_FORMATION_WITH_SPECIFIED_SOURCE( ' ', 'NONE', #65, .NOT_KNOWN. );
#134 = CLOSED_SHELL( '', ( #64, #56, #54, #58, #46, #40, #44, #52, #42, #48, #50, #60, #62, #38 ) );
#135 = CARTESIAN_POINT( '', ( 0.000000000000000, 0.000000000000000, 0.000000000000000 ) );
#136 = DIRECTION( '', ( 0.000000000000000, 0.000000000000000, 1.00000000000000 ) );
#137 = DIRECTION( '', ( 1.00000000000000, 0.000000000000000, 0.000000000000000 ) );
#138 =  ( LENGTH_UNIT(  )NAMED_UNIT( #74 )SI_UNIT( .MILLI., .METRE. ) );
#139 = SURFACE_SIDE_STYLE( '', ( #190 ) );
#140 = EDGE_LOOP( '', ( #191 ) );
#141 = AXIS2_PLACEMENT_3D( '', #192, #193, #194 );
#142 = SURFACE_SIDE_STYLE( '', ( #195 ) );
#143 = EDGE_LOOP( '', ( #196 ) );
#144 = EDGE_LOOP( '', ( #197 ) );
#145 = AXIS2_PLACEMENT_3D( '', #198, #199, #200 );
#146 = SURFACE_SIDE_STYLE( '', ( #201 ) );
#147 = EDGE_LOOP( '', ( #202, #203, #204, #205 ) );
#148 = AXIS2_PLACEMENT_3D( '', #206, #207, #208 );
#149 = SURFACE_SIDE_STYLE( '', ( #209 ) );
#150 = EDGE_LOOP( '', ( #210 ) );
#151 = EDGE_LOOP( '', ( #211 ) );
#152 = AXIS2_PLACEMENT_3D( '', #212, #213, #214 );
#153 = SURFACE_SIDE_STYLE( '', ( #215 ) );
#154 = EDGE_LOOP( '', ( #216 ) );
#155 = EDGE_LOOP( '', ( #217 ) );
#156 = AXIS2_PLACEMENT_3D( '', #218, #219, #220 );
#157 = SURFACE_SIDE_STYLE( '', ( #221 ) );
#158 = EDGE_LOOP( '', ( #222, #223, #224, #225 ) );
#159 = AXIS2_PLACEMENT_3D( '', #226, #227, #228 );
#160 = SURFACE_SIDE_STYLE( '', ( #229 ) );
#161 = EDGE_LOOP( '', ( #230, #231, #232, #233 ) );
#162 = AXIS2_PLACEMENT_3D( '', #234, #235, #236 );
#163 = SURFACE_SIDE_STYLE( '', ( #237 ) );
#164 = EDGE_LOOP( '', ( #238, #239, #240, #241 ) );
#165 = AXIS2_PLACEMENT_3D( '', #242, #243, #244 );
#166 = SURFACE_SIDE_STYLE( '', ( #245 ) );
#167 = EDGE_LOOP( '', ( #246 ) );
#168 = EDGE_LOOP( '', ( #247 ) );
#169 = AXIS2_PLACEMENT_3D( '', #248, #249, #250 );
#170 = SURFACE_SIDE_STYLE( '', ( #251 ) );
#171 = EDGE_LOOP( '', ( #252, #253, #254, #255 ) );
#172 = EDGE_LOOP( '', ( #256 ) );
#173 = EDGE_LOOP( '', ( #257 ) );
#174 = AXIS2_PLACEMENT_3D( '', #258, #259, #260 );
#175 = SURFACE_SIDE_STYLE( '', ( #261 ) );
#176 = EDGE_LOOP( '', ( #262 ) );
#177 = EDGE_LOOP( '', ( #263 ) );
#178 = AXIS2_PLACEMENT_3D( '', #264, #265, #266 );
#179 = SURFACE_SIDE_STYLE( '', ( #267 ) );
#180 = EDGE_LOOP( '', ( #268, #269, #270, #271 ) );
#181 = AXIS2_PLACEMENT_3D( '', #272, #273, #274 );
#182 = SURFACE_SIDE_STYLE( '', ( #275 ) );
#183 = EDGE_LOOP( '', ( #276 ) );
#184 = AXIS2_PLACEMENT_3D( '', #277, #278, #279 );
#185 = SURFACE_SIDE_STYLE( '', ( #280 ) );
#186 = EDGE_LOOP( '', ( #281 ) );
#187 = EDGE_LOOP( '', ( #282 ) );
#188 = AXIS2_PLACEMENT_3D( '', #283, #284, #285 );
#190 = SURFACE_STYLE_FILL_AREA( #286 );
#191 = ORIENTED_EDGE( '', *, *, #287, .T. );
#192 = CARTESIAN_POINT( '', ( 0.000000000000000, 0.000000000000000, -16.6000000000000 ) );
#193 = DIRECTION( '', ( 0.000000000000000, 0.000000000000000, -1.00000000000000 ) );
#194 = DIRECTION( '', ( -1.00000000000000, 0.000000000000000, 0.000000000000000 ) );
#195 = SURFACE_STYLE_FILL_AREA( #288 );
#196 = ORIENTED_EDGE( '', *, *, #289, .T. );
#197 = ORIENTED_EDGE( '', *, *, #290, .T. );
#198 = CARTESIAN_POINT( '', ( 0.000000000000000, 0.000000000000000, -3.80000000000000 ) );
#199 = DIRECTION( '', ( -0.000000000000000, -0.000000000000000, 1.00000000000000 ) );
#200 = DIRECTION( '', ( -1.00000000000000, 0.000000000000000, 0.000000000000000 ) );
#201 = SURFACE_STYLE_FILL_AREA( #291 );
#202 = ORIENTED_EDGE( '', *, *, #292, .F. );
#203 = ORIENTED_EDGE( '', *, *, #293, .F. );
#204 = ORIENTED_EDGE( '', *, *, #294, .T. );
#205 = ORIENTED_EDGE( '', *, *, #295, .T. );
#206 = CARTESIAN_POINT( '', ( 0.000000000000000, 0.000000000000000, -11.1484418399538 ) );
#207 = DIRECTION( '', ( -0.000000000000000, 0.000000000000000, -1.00000000000000 ) );
#208 = DIRECTION( '', ( -1.00000000000000, 0.000000000000000, 0.000000000000000 ) );
#209 = SURFACE_STYLE_FILL_AREA( #296 );
#210 = ORIENTED_EDGE( '', *, *, #297, .F. );
#211 = ORIENTED_EDGE( '', *, *, #298, .F. );
#212 = CARTESIAN_POINT( '', ( 0.000000000000000, 0.000000000000000, -3.80000000000000 ) );
#213 = DIRECTION( '', ( -0.000000000000000, -0.000000000000000, 1.00000000000000 ) );
#214 = DIRECTION( '', ( -1.00000000000000, 0.000000000000000, 0.000000000000000 ) );
#215 = SURFACE_STYLE_FILL_AREA( #299 );
#216 = ORIENTED_EDGE( '', *, *, #290, .F. );
#217 = ORIENTED_EDGE( '', *, *, #298, .T. );
#218 = CARTESIAN_POINT( '', ( 0.000000000000000, 0.000000000000000, -3.06151588455595E-017 ) );
#219 = DIRECTION( '', ( 0.000000000000000, 0.000000000000000, -1.00000000000000 ) );
#220 = DIRECTION( '', ( -1.00000000000000, 0.000000000000000, 0.000000000000000 ) );
#221 = SURFACE_STYLE_FILL_AREA( #300 );
#222 = ORIENTED_EDGE( '', *, *, #301, .T. );
#223 = ORIENTED_EDGE( '', *, *, #302, .T. );
#224 = ORIENTED_EDGE( '', *, *, #303, .F. );
#225 = ORIENTED_EDGE( '', *, *, #292, .T. );
#226 = CARTESIAN_POINT( '', ( 0.000000000000000, 0.000000000000000, -13.3598148096327 ) );
#227 = DIRECTION( '', ( -0.000000000000000, -0.000000000000000, 1.00000000000000 ) );
#228 = DIRECTION( '', ( 1.00000000000000, 0.000000000000000, 0.000000000000000 ) );
#229 = SURFACE_STYLE_FILL_AREA( #304 );
#230 = ORIENTED_EDGE( '', *, *, #305, .F. );
#231 = ORIENTED_EDGE( '', *, *, #306, .F. );
#232 = ORIENTED_EDGE( '', *, *, #293, .T. );
#233 = ORIENTED_EDGE( '', *, *, #303, .T. );
#234 = CARTESIAN_POINT( '', ( 3.41100120166023, -4.87141456714601, -12.2774016033815 ) );
#235 = DIRECTION( '', ( 0.819152044288992, 0.573576436351046, 0.000000000000000 ) );
#236 = DIRECTION( '', ( -0.573576436351046, 0.819152044288992, 0.000000000000000 ) );
#237 = SURFACE_STYLE_FILL_AREA( #307 );
#238 = ORIENTED_EDGE( '', *, *, #308, .F. );
#239 = ORIENTED_EDGE( '', *, *, #309, .F. );
#240 = ORIENTED_EDGE( '', *, *, #294, .F. );
#241 = ORIENTED_EDGE( '', *, *, #306, .T. );
#242 = CARTESIAN_POINT( '', ( 0.000000000000000, 0.000000000000000, -11.1949883971304 ) );
#243 = DIRECTION( '', ( -0.000000000000000, -0.000000000000000, 1.00000000000000 ) );
#244 = DIRECTION( '', ( 1.00000000000000, 0.000000000000000, 0.000000000000000 ) );
#245 = SURFACE_STYLE_FILL_AREA( #310 );
#246 = ORIENTED_EDGE( '', *, *, #311, .F. );
#247 = ORIENTED_EDGE( '', *, *, #312, .T. );
#248 = CARTESIAN_POINT( '', ( 0.000000000000000, 0.000000000000000, -3.80000000000000 ) );
#249 = DIRECTION( '', ( -0.000000000000000, -0.000000000000000, 1.00000000000000 ) );
#250 = DIRECTION( '', ( -1.00000000000000, 0.000000000000000, 0.000000000000000 ) );
#251 = SURFACE_STYLE_FILL_AREA( #313 );
#252 = ORIENTED_EDGE( '', *, *, #308, .T. );
#253 = ORIENTED_EDGE( '', *, *, #305, .T. );
#254 = ORIENTED_EDGE( '', *, *, #302, .F. );
#255 = ORIENTED_EDGE( '', *, *, #314, .F. );
#256 = ORIENTED_EDGE( '', *, *, #315, .T. );
#257 = ORIENTED_EDGE( '', *, *, #312, .F. );
#258 = CARTESIAN_POINT( '', ( 0.000000000000000, 0.000000000000000, -10.0000000000000 ) );
#259 = DIRECTION( '', ( -0.000000000000000, 0.000000000000000, -1.00000000000000 ) );
#260 = DIRECTION( '', ( -1.00000000000000, 0.000000000000000, 0.000000000000000 ) );
#261 = SURFACE_STYLE_FILL_AREA( #316 );
#262 = ORIENTED_EDGE( '', *, *, #287, .F. );
#263 = ORIENTED_EDGE( '', *, *, #311, .T. );
#264 = CARTESIAN_POINT( '', ( 0.000000000000000, 0.000000000000000, -16.2000000000000 ) );
#265 = DIRECTION( '', ( 0.000000000000000, 0.000000000000000, -1.00000000000000 ) );
#266 = DIRECTION( '', ( -1.00000000000000, 0.000000000000000, 0.000000000000000 ) );
#267 = SURFACE_STYLE_FILL_AREA( #317 );
#268 = ORIENTED_EDGE( '', *, *, #309, .T. );
#269 = ORIENTED_EDGE( '', *, *, #314, .T. );
#270 = ORIENTED_EDGE( '', *, *, #301, .F. );
#271 = ORIENTED_EDGE( '', *, *, #295, .F. );
#272 = CARTESIAN_POINT( '', ( -3.41100120166023, -4.87141456714602, -12.2774016033815 ) );
#273 = DIRECTION( '', ( 0.819152044288992, -0.573576436351046, 0.000000000000000 ) );
#274 = DIRECTION( '', ( 0.573576436351046, 0.819152044288992, 0.000000000000000 ) );
#275 = SURFACE_STYLE_FILL_AREA( #318 );
#276 = ORIENTED_EDGE( '', *, *, #297, .T. );
#277 = CARTESIAN_POINT( '', ( -4.19829329516295, 0.000000000000000, -2.21029784428816 ) );
#278 = DIRECTION( '', ( 0.000000000000000, 0.000000000000000, 1.00000000000000 ) );
#279 = DIRECTION( '', ( 1.00000000000000, 0.000000000000000, 0.000000000000000 ) );
#280 = SURFACE_STYLE_FILL_AREA( #319 );
#281 = ORIENTED_EDGE( '', *, *, #289, .F. );
#282 = ORIENTED_EDGE( '', *, *, #315, .F. );
#283 = CARTESIAN_POINT( '', ( 0.000000000000000, 0.000000000000000, -9.45930171730006 ) );
#284 = DIRECTION( '', ( 0.000000000000000, 0.000000000000000, -1.00000000000000 ) );
#285 = DIRECTION( '', ( -1.00000000000000, 0.000000000000000, 0.000000000000000 ) );
#286 = FILL_AREA_STYLE( '', ( #320 ) );
#287 = EDGE_CURVE( '', #321, #321, #322, .T. );
#288 = FILL_AREA_STYLE( '', ( #323 ) );
#289 = EDGE_CURVE( '', #324, #324, #325, .F. );
#290 = EDGE_CURVE( '', #326, #326, #327, .T. );
#291 = FILL_AREA_STYLE( '', ( #328 ) );
#292 = EDGE_CURVE( '', #329, #330, #331, .T. );
#293 = EDGE_CURVE( '', #332, #329, #333, .T. );
#294 = EDGE_CURVE( '', #332, #334, #335, .T. );
#295 = EDGE_CURVE( '', #334, #330, #336, .T. );
#296 = FILL_AREA_STYLE( '', ( #337 ) );
#297 = EDGE_CURVE( '', #338, #338, #339, .T. );
#298 = EDGE_CURVE( '', #340, #340, #341, .T. );
#299 = FILL_AREA_STYLE( '', ( #342 ) );
#300 = FILL_AREA_STYLE( '', ( #343 ) );
#301 = EDGE_CURVE( '', #330, #344, #345, .T. );
#302 = EDGE_CURVE( '', #344, #346, #347, .T. );
#303 = EDGE_CURVE( '', #329, #346, #348, .T. );
#304 = FILL_AREA_STYLE( '', ( #349 ) );
#305 = EDGE_CURVE( '', #350, #346, #351, .T. );
#306 = EDGE_CURVE( '', #332, #350, #352, .T. );
#307 = FILL_AREA_STYLE( '', ( #353 ) );
#308 = EDGE_CURVE( '', #354, #350, #355, .T. );
#309 = EDGE_CURVE( '', #334, #354, #356, .T. );
#310 = FILL_AREA_STYLE( '', ( #357 ) );
#311 = EDGE_CURVE( '', #358, #358, #359, .T. );
#312 = EDGE_CURVE( '', #360, #360, #361, .T. );
#313 = FILL_AREA_STYLE( '', ( #362 ) );
#314 = EDGE_CURVE( '', #354, #344, #363, .T. );
#315 = EDGE_CURVE( '', #364, #364, #365, .T. );
#316 = FILL_AREA_STYLE( '', ( #366 ) );
#317 = FILL_AREA_STYLE( '', ( #367 ) );
#318 = FILL_AREA_STYLE( '', ( #368 ) );
#319 = FILL_AREA_STYLE( '', ( #369 ) );
#320 = FILL_AREA_STYLE_COLOUR( '', #370 );
#321 = VERTEX_POINT( '', #371 );
#322 = CIRCLE( '', #372, 7.60000000000000 );
#323 = FILL_AREA_STYLE_COLOUR( '', #373 );
#324 = VERTEX_POINT( '', #374 );
#325 = CIRCLE( '', #375, 4.50000000000000 );
#326 = VERTEX_POINT( '', #376 );
#327 = CIRCLE( '', #377, 4.50000000000000 );
#328 = FILL_AREA_STYLE_COLOUR( '', #378 );
#329 = VERTEX_POINT( '', #379 );
#330 = VERTEX_POINT( '', #380 );
#331 = CIRCLE( '', #381, 6.66114270360743 );
#332 = VERTEX_POINT( '', #382 );
#333 = LINE( '', #383, #384 );
#334 = VERTEX_POINT( '', #385 );
#335 = CIRCLE( '', #386, 5.40146513979721 );
#336 = LINE( '', #387, #388 );
#337 = FILL_AREA_STYLE_COLOUR( '', #389 );
#338 = VERTEX_POINT( '', #390 );
#339 = CIRCLE( '', #391, 1.90000000000000 );
#340 = VERTEX_POINT( '', #392 );
#341 = CIRCLE( '', #393, 1.90000000000000 );
#342 = FILL_AREA_STYLE_COLOUR( '', #394 );
#343 = FILL_AREA_STYLE_COLOUR( '', #395 );
#344 = VERTEX_POINT( '', #396 );
#345 = LINE( '', #397, #398 );
#346 = VERTEX_POINT( '', #399 );
#347 = CIRCLE( '', #400, 6.48838692342774 );
#348 = LINE( '', #401, #402 );
#349 = FILL_AREA_STYLE_COLOUR( '', #403 );
#350 = VERTEX_POINT( '', #404 );
#351 = LINE( '', #405, #406 );
#352 = LINE( '', #407, #408 );
#353 = FILL_AREA_STYLE_COLOUR( '', #409 );
#354 = VERTEX_POINT( '', #410 );
#355 = CIRCLE( '', #411, 5.22870935961753 );
#356 = LINE( '', #412, #413 );
#357 = FILL_AREA_STYLE_COLOUR( '', #414 );
#358 = VERTEX_POINT( '', #415 );
#359 = CIRCLE( '', #416, 8.00000000000000 );
#360 = VERTEX_POINT( '', #417 );
#361 = CIRCLE( '', #418, 8.00000000000000 );
#362 = FILL_AREA_STYLE_COLOUR( '', #419 );
#363 = LINE( '', #420, #421 );
#364 = VERTEX_POINT( '', #422 );
#365 = CIRCLE( '', #423, 4.77244219820313 );
#366 = FILL_AREA_STYLE_COLOUR( '', #424 );
#367 = FILL_AREA_STYLE_COLOUR( '', #425 );
#368 = FILL_AREA_STYLE_COLOUR( '', #426 );
#369 = FILL_AREA_STYLE_COLOUR( '', #427 );
#370 = COLOUR_RGB( '', 0.200000002980232, 0.200000002980232, 0.200000002980232 );
#371 = CARTESIAN_POINT( '', ( -7.60000000000000, 0.000000000000000, -16.6000000000000 ) );
#372 = AXIS2_PLACEMENT_3D( '', #428, #429, #430 );
#373 = COLOUR_RGB( '', 0.200000002980232, 0.200000002980232, 0.200000002980232 );
#374 = CARTESIAN_POINT( '', ( -4.50000000000000, 0.000000000000000, -9.45930171730006 ) );
#375 = AXIS2_PLACEMENT_3D( '', #431, #432, #433 );
#376 = CARTESIAN_POINT( '', ( -4.50000000000000, 0.000000000000000, 0.000000000000000 ) );
#377 = AXIS2_PLACEMENT_3D( '', #434, #435, #436 );
#378 = COLOUR_RGB( '', 0.200000002980232, 0.200000002980232, 0.200000002980232 );
#379 = CARTESIAN_POINT( '', ( 3.82067449396092, -5.45648866296073, -13.3078890921999 ) );
#380 = CARTESIAN_POINT( '', ( -3.82067449396092, -5.45648866296073, -13.3078890921999 ) );
#381 = AXIS2_PLACEMENT_3D( '', #437, #438, #439 );
#382 = CARTESIAN_POINT( '', ( 3.09815312595929, -4.42462121142061, -11.1484418399538 ) );
#383 = CARTESIAN_POINT( '', ( 3.82067449396092, -5.45648866296073, -13.3078890921999 ) );
#384 = VECTOR( '', #440, 1000.00000000000 );
#385 = CARTESIAN_POINT( '', ( -3.09815312595929, -4.42462121142061, -11.1484418399538 ) );
#386 = AXIS2_PLACEMENT_3D( '', #441, #442, #443 );
#387 = CARTESIAN_POINT( '', ( -3.82067449396092, -5.45648866296073, -13.3078890921999 ) );
#388 = VECTOR( '', #444, 1000.00000000000 );
#389 = COLOUR_RGB( '', 0.200000002980232, 0.200000002980232, 0.200000002980232 );
#390 = CARTESIAN_POINT( '', ( 1.90000000000000, 0.000000000000000, -2.21029784428816 ) );
#391 = AXIS2_PLACEMENT_3D( '', #445, #446, #447 );
#392 = CARTESIAN_POINT( '', ( -1.90000000000000, 0.000000000000000, 0.000000000000000 ) );
#393 = AXIS2_PLACEMENT_3D( '', #448, #449, #450 );
#394 = COLOUR_RGB( '', 0.200000002980232, 0.200000002980232, 0.200000002980232 );
#395 = COLOUR_RGB( '', 0.200000002980232, 0.200000002980232, 0.200000002980232 );
#396 = CARTESIAN_POINT( '', ( -3.72158584920641, -5.31497541246380, -13.4086632973047 ) );
#397 = CARTESIAN_POINT( '', ( -3.76961729174364, -5.38357142138428, -13.3598148096327 ) );
#398 = VECTOR( '', #451, 1000.00000000000 );
#399 = CARTESIAN_POINT( '', ( 3.72158584920641, -5.31497541246380, -13.4086632973047 ) );
#400 = AXIS2_PLACEMENT_3D( '', #452, #453, #454 );
#401 = CARTESIAN_POINT( '', ( 3.82067449396092, -5.45648866296073, -13.3078890921999 ) );
#402 = VECTOR( '', #455, 1000.00000000000 );
#403 = COLOUR_RGB( '', 0.200000002980232, 0.200000002980232, 0.200000002980232 );
#404 = CARTESIAN_POINT( '', ( 2.99906448120478, -4.28310796092368, -11.2492160450586 ) );
#405 = CARTESIAN_POINT( '', ( 7.10501140811254E-016, 4.97498254702638E-016, -2.28571428571429 ) );
#406 = VECTOR( '', #456, 1000.00000000000 );
#407 = CARTESIAN_POINT( '', ( 3.05238511157682, -4.35925771290775, -11.1949883971304 ) );
#408 = VECTOR( '', #457, 1000.00000000000 );
#409 = COLOUR_RGB( '', 0.200000002980232, 0.200000002980232, 0.200000002980232 );
#410 = CARTESIAN_POINT( '', ( -2.99906448120478, -4.28310796092368, -11.2492160450586 ) );
#411 = AXIS2_PLACEMENT_3D( '', #458, #459, #460 );
#412 = CARTESIAN_POINT( '', ( -3.05238511157682, -4.35925771290775, -11.1949883971304 ) );
#413 = VECTOR( '', #461, 1000.00000000000 );
#414 = COLOUR_RGB( '', 0.200000002980232, 0.200000002980232, 0.200000002980232 );
#415 = CARTESIAN_POINT( '', ( -8.00000000000000, 0.000000000000000, -16.2000000000000 ) );
#416 = AXIS2_PLACEMENT_3D( '', #462, #463, #464 );
#417 = CARTESIAN_POINT( '', ( -8.00000000000000, 0.000000000000000, -16.0000000000000 ) );
#418 = AXIS2_PLACEMENT_3D( '', #465, #466, #467 );
#419 = COLOUR_RGB( '', 0.200000002980232, 0.200000002980232, 0.200000002980232 );
#420 = CARTESIAN_POINT( '', ( 3.55250570405627E-016, -2.48749127351319E-016, -2.28571428571429 ) );
#421 = VECTOR( '', #468, 1000.00000000000 );
#422 = CARTESIAN_POINT( '', ( -4.77244219820313, 0.000000000000000, -10.4670437683482 ) );
#423 = AXIS2_PLACEMENT_3D( '', #469, #470, #471 );
#424 = COLOUR_RGB( '', 0.200000002980232, 0.200000002980232, 0.200000002980232 );
#425 = COLOUR_RGB( '', 0.200000002980232, 0.200000002980232, 0.200000002980232 );
#426 = COLOUR_RGB( '', 0.200000002980232, 0.200000002980232, 0.200000002980232 );
#427 = COLOUR_RGB( '', 0.200000002980232, 0.200000002980232, 0.200000002980232 );
#428 = CARTESIAN_POINT( '', ( 0.000000000000000, 0.000000000000000, -16.6000000000000 ) );
#429 = DIRECTION( '', ( 0.000000000000000, 0.000000000000000, -1.00000000000000 ) );
#430 = DIRECTION( '', ( -1.00000000000000, 0.000000000000000, 0.000000000000000 ) );
#431 = CARTESIAN_POINT( '', ( 0.000000000000000, 0.000000000000000, -9.45930171730006 ) );
#432 = DIRECTION( '', ( 0.000000000000000, 0.000000000000000, -1.00000000000000 ) );
#433 = DIRECTION( '', ( -1.00000000000000, 0.000000000000000, 0.000000000000000 ) );
#434 = CARTESIAN_POINT( '', ( 0.000000000000000, 0.000000000000000, 0.000000000000000 ) );
#435 = DIRECTION( '', ( 0.000000000000000, 0.000000000000000, -1.00000000000000 ) );
#436 = DIRECTION( '', ( -1.00000000000000, 0.000000000000000, 0.000000000000000 ) );
#437 = CARTESIAN_POINT( '', ( 0.000000000000000, 0.000000000000000, -13.3078890921999 ) );
#438 = DIRECTION( '', ( 0.000000000000000, 0.000000000000000, -1.00000000000000 ) );
#439 = DIRECTION( '', ( -1.00000000000000, 0.000000000000000, 0.000000000000000 ) );
#440 = DIRECTION( '', ( 0.289008547200652, -0.412746980616046, -0.863778900898434 ) );
#441 = CARTESIAN_POINT( '', ( 0.000000000000000, 0.000000000000000, -11.1484418399538 ) );
#442 = DIRECTION( '', ( 0.000000000000000, 0.000000000000000, -1.00000000000000 ) );
#443 = DIRECTION( '', ( -1.00000000000000, 0.000000000000000, 0.000000000000000 ) );
#444 = DIRECTION( '', ( -0.289008547200652, -0.412746980616046, -0.863778900898434 ) );
#445 = CARTESIAN_POINT( '', ( 0.000000000000000, 0.000000000000000, -2.21029784428816 ) );
#446 = DIRECTION( '', ( 0.000000000000000, 0.000000000000000, 1.00000000000000 ) );
#447 = DIRECTION( '', ( 1.00000000000000, 0.000000000000000, 0.000000000000000 ) );
#448 = CARTESIAN_POINT( '', ( 0.000000000000000, 0.000000000000000, 0.000000000000000 ) );
#449 = DIRECTION( '', ( 0.000000000000000, 0.000000000000000, -1.00000000000000 ) );
#450 = DIRECTION( '', ( -1.00000000000000, 0.000000000000000, 0.000000000000000 ) );
#451 = DIRECTION( '', ( 0.495443223772549, 0.707566252484653, -0.503871025524081 ) );
#452 = CARTESIAN_POINT( '', ( 0.000000000000000, 0.000000000000000, -13.4086632973047 ) );
#453 = DIRECTION( '', ( 0.000000000000000, 0.000000000000000, 1.00000000000000 ) );
#454 = DIRECTION( '', ( 1.00000000000000, 0.000000000000000, 0.000000000000000 ) );
#455 = DIRECTION( '', ( -0.495443223772549, 0.707566252484653, -0.503871025524081 ) );
#456 = DIRECTION( '', ( 0.289008547200653, -0.412746980616046, -0.863778900898433 ) );
#457 = DIRECTION( '', ( -0.495443223772545, 0.707566252484648, -0.503871025524091 ) );
#458 = CARTESIAN_POINT( '', ( 0.000000000000000, 0.000000000000000, -11.2492160450586 ) );
#459 = DIRECTION( '', ( 0.000000000000000, 0.000000000000000, 1.00000000000000 ) );
#460 = DIRECTION( '', ( 1.00000000000000, 0.000000000000000, 0.000000000000000 ) );
#461 = DIRECTION( '', ( 0.495443223772545, 0.707566252484648, -0.503871025524091 ) );
#462 = CARTESIAN_POINT( '', ( 0.000000000000000, 0.000000000000000, -16.2000000000000 ) );
#463 = DIRECTION( '', ( 0.000000000000000, 0.000000000000000, -1.00000000000000 ) );
#464 = DIRECTION( '', ( -1.00000000000000, 0.000000000000000, 0.000000000000000 ) );
#465 = CARTESIAN_POINT( '', ( 0.000000000000000, 0.000000000000000, -16.0000000000000 ) );
#466 = DIRECTION( '', ( 0.000000000000000, 0.000000000000000, -1.00000000000000 ) );
#467 = DIRECTION( '', ( -1.00000000000000, 0.000000000000000, 0.000000000000000 ) );
#468 = DIRECTION( '', ( -0.289008547200652, -0.412746980616046, -0.863778900898434 ) );
#469 = CARTESIAN_POINT( '', ( 0.000000000000000, 0.000000000000000, -10.4670437683482 ) );
#470 = DIRECTION( '', ( 0.000000000000000, 0.000000000000000, -1.00000000000000 ) );
#471 = DIRECTION( '', ( -1.00000000000000, 0.000000000000000, 0.000000000000000 ) );
ENDSEC;
END-ISO-10303-21;
