ISO-10303-21;
HEADER;
FILE_DESCRIPTION( ( 'PIAB ISM' ), '1' );
FILE_NAME( 'd:/FALUTEKNIK/PROJEKT/8234/Gummidel_U/STEP/PIAB_ISM_0101146.stp', 'Unknown', ( 'MaK' ), ( 'FALUTEKNIK AB' ), 'XStep 1.0', 'Solid Edge V15', ' ' );
FILE_SCHEMA( ( 'CONFIG_CONTROL_DESIGN' ) );
ENDSEC;
DATA;
#1 = DESIGN_CONTEXT( '', #27, 'design' );
#2 = APPLICATION_PROTOCOL_DEFINITION( 'INTERNATIONAL STANDARD', 'config_control_design', 1994, #27 );
#3 = PRODUCT_CATEGORY_RELATIONSHIP( 'NONE', 'NONE', #28, #29 );
#4 = DATE_AND_TIME( #30, #31 );
#5 = DATE_TIME_ROLE( 'creation_date' );
#6 = DATE_TIME_ROLE( 'classification_date' );
#7 = PERSON_AND_ORGANIZATION_ROLE( 'creator' );
#8 = PERSON_AND_ORGANIZATION_ROLE( 'design_supplier' );
#9 = PERSON_AND_ORGANIZATION_ROLE( 'classification_officer' );
#10 = PERSON_AND_ORGANIZATION_ROLE( 'design_owner' );
#11 = APPROVAL_PERSON_ORGANIZATION( #32, #33, #34 );
#12 = APPROVAL_DATE_TIME( #4, #33 );
#13 = CC_DESIGN_APPROVAL( #33, ( #35, #36, #37 ) );
#14 = CC_DESIGN_DATE_AND_TIME_ASSIGNMENT( #4, #5, ( #37 ) );
#15 = CC_DESIGN_DATE_AND_TIME_ASSIGNMENT( #4, #6, ( #35 ) );
#16 = CC_DESIGN_PERSON_AND_ORGANIZATION_ASSIGNMENT( #32, #10, ( #38 ) );
#17 = CC_DESIGN_PERSON_AND_ORGANIZATION_ASSIGNMENT( #32, #7, ( #37 ) );
#18 = CC_DESIGN_PERSON_AND_ORGANIZATION_ASSIGNMENT( #32, #7, ( #36 ) );
#19 = CC_DESIGN_PERSON_AND_ORGANIZATION_ASSIGNMENT( #32, #8, ( #36 ) );
#20 = CC_DESIGN_SECURITY_CLASSIFICATION( #35, ( #36 ) );
#21 = CC_DESIGN_PERSON_AND_ORGANIZATION_ASSIGNMENT( #32, #9, ( #35 ) );
#22 = SHAPE_DEFINITION_REPRESENTATION( #39, #40 );
#23 =  ( GEOMETRIC_REPRESENTATION_CONTEXT( 3 )GLOBAL_UNCERTAINTY_ASSIGNED_CONTEXT( ( #43 ) )GLOBAL_UNIT_ASSIGNED_CONTEXT( ( #45, #46, #47 ) )REPRESENTATION_CONTEXT( 'NONE', 'WORKSPACE' ) );
#27 = APPLICATION_CONTEXT( 'CONFIGURATION CONTROLLED 3D DESIGNS OF MECHANICAL PARTS AND ASSEMBLIES' );
#28 = PRODUCT_CATEGORY( 'part', 'NONE' );
#29 = PRODUCT_RELATED_PRODUCT_CATEGORY( 'detail', ' ', ( #38 ) );
#30 = CALENDAR_DATE( 2004, 13, 3 );
#31 = LOCAL_TIME( 15, 45, 34.0000000000000, #49 );
#32 = PERSON_AND_ORGANIZATION( #50, #51 );
#33 = APPROVAL( #52, 'SOLID MODEL' );
#34 = APPROVAL_ROLE( 'APPROVED' );
#35 = SECURITY_CLASSIFICATION( '', '', #53 );
#36 = PRODUCT_DEFINITION_FORMATION_WITH_SPECIFIED_SOURCE( ' ', 'NONE', #38, .NOT_KNOWN. );
#37 = PRODUCT_DEFINITION( 'NONE', 'NONE', #36, #1 );
#38 = PRODUCT( '3150120', '3150120', 'PART-3150120-DESC', ( #54 ) );
#39 = PRODUCT_DEFINITION_SHAPE( 'NONE', 'NONE', #37 );
#40 = ADVANCED_BREP_SHAPE_REPRESENTATION( '3150120', ( #55, #56 ), #23 );
#43 = UNCERTAINTY_MEASURE_WITH_UNIT( LENGTH_MEASURE( 0.00100000000000000 ), #45, '', '' );
#45 =  ( CONVERSION_BASED_UNIT( 'MILLIMETRE', #59 )LENGTH_UNIT(  )NAMED_UNIT( #62 ) );
#46 =  ( CONVERSION_BASED_UNIT( 'RADIAN', #64 )NAMED_UNIT( #66 )PLANE_ANGLE_UNIT(  ) );
#47 =  ( NAMED_UNIT( #66 )SOLID_ANGLE_UNIT(  )SI_UNIT( $, .STERADIAN. ) );
#49 = COORDINATED_UNIVERSAL_TIME_OFFSET( 1, 0, .AHEAD. );
#50 = PERSON( '', 'UNSPECIFIED', $, $, $, $ );
#51 = ORGANIZATION( 'UNSPECIFIED', 'UNSPECIFIED', 'UNSPECIFIED' );
#52 = APPROVAL_STATUS( 'approved' );
#53 = SECURITY_CLASSIFICATION_LEVEL( 'unclassified' );
#54 = MECHANICAL_CONTEXT( '', #27, 'mechanical' );
#55 = BREP_WITH_VOIDS( '3150120', #71, ( #72 ) );
#56 = AXIS2_PLACEMENT_3D( '', #73, #74, #75 );
#59 = LENGTH_MEASURE_WITH_UNIT( LENGTH_MEASURE( 1.00000000000000 ), #76 );
#62 = DIMENSIONAL_EXPONENTS( 1.00000000000000, 0.000000000000000, 0.000000000000000, 0.000000000000000, 0.000000000000000, 0.000000000000000, 0.000000000000000 );
#64 = PLANE_ANGLE_MEASURE_WITH_UNIT( PLANE_ANGLE_MEASURE( 1.00000000000000 ), #77 );
#66 = DIMENSIONAL_EXPONENTS( 0.000000000000000, 0.000000000000000, 0.000000000000000, 0.000000000000000, 0.000000000000000, 0.000000000000000, 0.000000000000000 );
#71 = CLOSED_SHELL( '', ( #78, #79, #80, #81, #82, #83, #84, #85, #86, #87, #88, #89, #90, #91, #92, #93, #94 ) );
#72 = ORIENTED_CLOSED_SHELL( '', *, #95, .T. );
#73 = CARTESIAN_POINT( '', ( 0.000000000000000, 0.000000000000000, 0.000000000000000 ) );
#74 = DIRECTION( '', ( 0.000000000000000, 0.000000000000000, 1.00000000000000 ) );
#75 = DIRECTION( '', ( 1.00000000000000, 0.000000000000000, 0.000000000000000 ) );
#76 =  ( NAMED_UNIT( #62 )LENGTH_UNIT(  )SI_UNIT( .MILLI., .METRE. ) );
#77 =  ( NAMED_UNIT( #66 )PLANE_ANGLE_UNIT(  )SI_UNIT( $, .RADIAN. ) );
#78 = ADVANCED_FACE( '', ( #98, #99 ), #100, .T. );
#79 = ADVANCED_FACE( '', ( #101, #102 ), #103, .T. );
#80 = ADVANCED_FACE( '', ( #104, #105 ), #106, .T. );
#81 = ADVANCED_FACE( '', ( #107, #108 ), #109, .T. );
#82 = ADVANCED_FACE( '', ( #110, #111 ), #112, .T. );
#83 = ADVANCED_FACE( '', ( #113, #114 ), #115, .T. );
#84 = ADVANCED_FACE( '', ( #116, #117 ), #118, .T. );
#85 = ADVANCED_FACE( '', ( #119, #120 ), #121, .F. );
#86 = ADVANCED_FACE( '', ( #122, #123 ), #124, .F. );
#87 = ADVANCED_FACE( '', ( #125, #126 ), #127, .F. );
#88 = ADVANCED_FACE( '', ( #128, #129 ), #130, .T. );
#89 = ADVANCED_FACE( '', ( #131, #132 ), #133, .F. );
#90 = ADVANCED_FACE( '', ( #134, #135 ), #136, .T. );
#91 = ADVANCED_FACE( '', ( #137, #138 ), #139, .F. );
#92 = ADVANCED_FACE( '', ( #140, #141 ), #142, .T. );
#93 = ADVANCED_FACE( '', ( #143, #144 ), #145, .T. );
#94 = ADVANCED_FACE( '', ( #146, #147 ), #148, .T. );
#95 = CLOSED_SHELL( '', ( #149, #150, #151, #152 ) );
#98 = FACE_OUTER_BOUND( '', #153, .T. );
#99 = FACE_BOUND( '', #154, .T. );
#100 = PLANE( '', #155 );
#101 = FACE_OUTER_BOUND( '', #156, .T. );
#102 = FACE_OUTER_BOUND( '', #157, .T. );
#103 = TOROIDAL_SURFACE( '', #158, 15.3158766406477, 1.00000000000000 );
#104 = FACE_OUTER_BOUND( '', #159, .T. );
#105 = FACE_OUTER_BOUND( '', #160, .T. );
#106 = CYLINDRICAL_SURFACE( '', #161, 7.00000000000000 );
#107 = FACE_OUTER_BOUND( '', #162, .T. );
#108 = FACE_BOUND( '', #163, .T. );
#109 = PLANE( '', #164 );
#110 = FACE_OUTER_BOUND( '', #165, .T. );
#111 = FACE_OUTER_BOUND( '', #166, .T. );
#112 = CYLINDRICAL_SURFACE( '', #167, 7.25000000000000 );
#113 = FACE_OUTER_BOUND( '', #168, .T. );
#114 = FACE_OUTER_BOUND( '', #169, .T. );
#115 = CYLINDRICAL_SURFACE( '', #170, 7.25000000000000 );
#116 = FACE_OUTER_BOUND( '', #171, .T. );
#117 = FACE_BOUND( '', #172, .T. );
#118 = PLANE( '', #173 );
#119 = FACE_OUTER_BOUND( '', #174, .T. );
#120 = FACE_OUTER_BOUND( '', #175, .T. );
#121 = CYLINDRICAL_SURFACE( '', #176, 3.00000000000000 );
#122 = FACE_OUTER_BOUND( '', #177, .T. );
#123 = FACE_OUTER_BOUND( '', #178, .T. );
#124 = TOROIDAL_SURFACE( '', #179, 2.50000000000000, 0.500000000000000 );
#125 = FACE_OUTER_BOUND( '', #180, .T. );
#126 = FACE_OUTER_BOUND( '', #181, .T. );
#127 = CYLINDRICAL_SURFACE( '', #182, 2.50000000000000 );
#128 = FACE_BOUND( '', #183, .T. );
#129 = FACE_OUTER_BOUND( '', #184, .T. );
#130 = PLANE( '', #185 );
#131 = FACE_OUTER_BOUND( '', #186, .T. );
#132 = FACE_OUTER_BOUND( '', #187, .T. );
#133 = CYLINDRICAL_SURFACE( '', #188, 3.50000000000000 );
#134 = FACE_BOUND( '', #189, .T. );
#135 = FACE_OUTER_BOUND( '', #190, .T. );
#136 = PLANE( '', #191 );
#137 = FACE_BOUND( '', #192, .T. );
#138 = FACE_OUTER_BOUND( '', #193, .T. );
#139 = CONICAL_SURFACE( '', #194, 14.9779837950975, 1.22611916390427 );
#140 = FACE_BOUND( '', #195, .T. );
#141 = FACE_OUTER_BOUND( '', #196, .T. );
#142 = PLANE( '', #197 );
#143 = FACE_OUTER_BOUND( '', #198, .T. );
#144 = FACE_OUTER_BOUND( '', #199, .T. );
#145 = TOROIDAL_SURFACE( '', #200, 15.5000000000000, 0.500000000000000 );
#146 = FACE_OUTER_BOUND( '', #201, .T. );
#147 = FACE_BOUND( '', #202, .T. );
#148 = CONICAL_SURFACE( '', #203, 7.25000000000000, 1.16188849784397 );
#149 = ADVANCED_FACE( '', ( #204, #205 ), #206, .F. );
#150 = ADVANCED_FACE( '', ( #207, #208 ), #209, .F. );
#151 = ADVANCED_FACE( '', ( #210, #211 ), #212, .F. );
#152 = ADVANCED_FACE( '', ( #213, #214 ), #215, .T. );
#153 = EDGE_LOOP( '', ( #216 ) );
#154 = EDGE_LOOP( '', ( #217 ) );
#155 = AXIS2_PLACEMENT_3D( '', #218, #219, #220 );
#156 = EDGE_LOOP( '', ( #221 ) );
#157 = EDGE_LOOP( '', ( #222 ) );
#158 = AXIS2_PLACEMENT_3D( '', #223, #224, #225 );
#159 = EDGE_LOOP( '', ( #226 ) );
#160 = EDGE_LOOP( '', ( #227 ) );
#161 = AXIS2_PLACEMENT_3D( '', #228, #229, #230 );
#162 = EDGE_LOOP( '', ( #231 ) );
#163 = EDGE_LOOP( '', ( #232 ) );
#164 = AXIS2_PLACEMENT_3D( '', #233, #234, #235 );
#165 = EDGE_LOOP( '', ( #236 ) );
#166 = EDGE_LOOP( '', ( #237 ) );
#167 = AXIS2_PLACEMENT_3D( '', #238, #239, #240 );
#168 = EDGE_LOOP( '', ( #241 ) );
#169 = EDGE_LOOP( '', ( #242 ) );
#170 = AXIS2_PLACEMENT_3D( '', #243, #244, #245 );
#171 = EDGE_LOOP( '', ( #246 ) );
#172 = EDGE_LOOP( '', ( #247 ) );
#173 = AXIS2_PLACEMENT_3D( '', #248, #249, #250 );
#174 = EDGE_LOOP( '', ( #251 ) );
#175 = EDGE_LOOP( '', ( #252 ) );
#176 = AXIS2_PLACEMENT_3D( '', #253, #254, #255 );
#177 = EDGE_LOOP( '', ( #256 ) );
#178 = EDGE_LOOP( '', ( #257 ) );
#179 = AXIS2_PLACEMENT_3D( '', #258, #259, #260 );
#180 = EDGE_LOOP( '', ( #261 ) );
#181 = EDGE_LOOP( '', ( #262 ) );
#182 = AXIS2_PLACEMENT_3D( '', #263, #264, #265 );
#183 = EDGE_LOOP( '', ( #266 ) );
#184 = EDGE_LOOP( '', ( #267 ) );
#185 = AXIS2_PLACEMENT_3D( '', #268, #269, #270 );
#186 = EDGE_LOOP( '', ( #271 ) );
#187 = EDGE_LOOP( '', ( #272 ) );
#188 = AXIS2_PLACEMENT_3D( '', #273, #274, #275 );
#189 = EDGE_LOOP( '', ( #276 ) );
#190 = EDGE_LOOP( '', ( #277 ) );
#191 = AXIS2_PLACEMENT_3D( '', #278, #279, #280 );
#192 = EDGE_LOOP( '', ( #281 ) );
#193 = EDGE_LOOP( '', ( #282 ) );
#194 = AXIS2_PLACEMENT_3D( '', #283, #284, #285 );
#195 = EDGE_LOOP( '', ( #286 ) );
#196 = EDGE_LOOP( '', ( #287 ) );
#197 = AXIS2_PLACEMENT_3D( '', #288, #289, #290 );
#198 = EDGE_LOOP( '', ( #291 ) );
#199 = EDGE_LOOP( '', ( #292 ) );
#200 = AXIS2_PLACEMENT_3D( '', #293, #294, #295 );
#201 = EDGE_LOOP( '', ( #296 ) );
#202 = EDGE_LOOP( '', ( #297 ) );
#203 = AXIS2_PLACEMENT_3D( '', #298, #299, #300 );
#204 = FACE_OUTER_BOUND( '', #301, .T. );
#205 = FACE_OUTER_BOUND( '', #302, .T. );
#206 = TOROIDAL_SURFACE( '', #303, 5.25000000000000, 0.500000000000000 );
#207 = FACE_OUTER_BOUND( '', #304, .T. );
#208 = FACE_OUTER_BOUND( '', #305, .T. );
#209 = CYLINDRICAL_SURFACE( '', #306, 5.00000000000000 );
#210 = FACE_OUTER_BOUND( '', #307, .T. );
#211 = FACE_OUTER_BOUND( '', #308, .T. );
#212 = TOROIDAL_SURFACE( '', #309, 5.25000000000000, 0.500000000000000 );
#213 = FACE_OUTER_BOUND( '', #310, .T. );
#214 = FACE_OUTER_BOUND( '', #311, .T. );
#215 = CYLINDRICAL_SURFACE( '', #312, 4.75000000000000 );
#216 = ORIENTED_EDGE( '', *, *, #313, .F. );
#217 = ORIENTED_EDGE( '', *, *, #314, .F. );
#218 = CARTESIAN_POINT( '', ( 7.25000000000000, 0.000000000000000, 7.50000000000001 ) );
#219 = DIRECTION( '', ( 0.000000000000000, 0.000000000000000, -1.00000000000000 ) );
#220 = DIRECTION( '', ( -1.00000000000000, 0.000000000000000, 0.000000000000000 ) );
#221 = ORIENTED_EDGE( '', *, *, #315, .T. );
#222 = ORIENTED_EDGE( '', *, *, #316, .F. );
#223 = CARTESIAN_POINT( '', ( 0.000000000000000, 0.000000000000000, 1.00000000000000 ) );
#224 = DIRECTION( '', ( 0.000000000000000, 0.000000000000000, 1.00000000000000 ) );
#225 = DIRECTION( '', ( 1.00000000000000, 0.000000000000000, 0.000000000000000 ) );
#226 = ORIENTED_EDGE( '', *, *, #317, .F. );
#227 = ORIENTED_EDGE( '', *, *, #314, .T. );
#228 = CARTESIAN_POINT( '', ( 0.000000000000000, 0.000000000000000, -5.47787341772713 ) );
#229 = DIRECTION( '', ( 0.000000000000000, 0.000000000000000, 1.00000000000000 ) );
#230 = DIRECTION( '', ( -1.00000000000000, 0.000000000000000, 0.000000000000000 ) );
#231 = ORIENTED_EDGE( '', *, *, #318, .T. );
#232 = ORIENTED_EDGE( '', *, *, #317, .T. );
#233 = CARTESIAN_POINT( '', ( 7.25000000000000, 0.000000000000000, 5.50000000000001 ) );
#234 = DIRECTION( '', ( 0.000000000000000, 0.000000000000000, 1.00000000000000 ) );
#235 = DIRECTION( '', ( 1.00000000000000, 0.000000000000000, 0.000000000000000 ) );
#236 = ORIENTED_EDGE( '', *, *, #313, .T. );
#237 = ORIENTED_EDGE( '', *, *, #319, .F. );
#238 = CARTESIAN_POINT( '', ( 0.000000000000000, 0.000000000000000, 9.00000000000000 ) );
#239 = DIRECTION( '', ( 0.000000000000000, 0.000000000000000, -1.00000000000000 ) );
#240 = DIRECTION( '', ( 1.00000000000000, 0.000000000000000, 0.000000000000000 ) );
#241 = ORIENTED_EDGE( '', *, *, #320, .T. );
#242 = ORIENTED_EDGE( '', *, *, #318, .F. );
#243 = CARTESIAN_POINT( '', ( 0.000000000000000, 0.000000000000000, 9.00000000000000 ) );
#244 = DIRECTION( '', ( 0.000000000000000, 0.000000000000000, -1.00000000000000 ) );
#245 = DIRECTION( '', ( 1.00000000000000, 0.000000000000000, 0.000000000000000 ) );
#246 = ORIENTED_EDGE( '', *, *, #319, .T. );
#247 = ORIENTED_EDGE( '', *, *, #321, .F. );
#248 = CARTESIAN_POINT( '', ( 7.25000000000001, 0.000000000000000, 9.50000000000001 ) );
#249 = DIRECTION( '', ( 0.000000000000000, 0.000000000000000, 1.00000000000000 ) );
#250 = DIRECTION( '', ( 1.00000000000000, 0.000000000000000, 0.000000000000000 ) );
#251 = ORIENTED_EDGE( '', *, *, #321, .T. );
#252 = ORIENTED_EDGE( '', *, *, #322, .F. );
#253 = CARTESIAN_POINT( '', ( 0.000000000000000, 0.000000000000000, 9.00000000000000 ) );
#254 = DIRECTION( '', ( 0.000000000000000, 0.000000000000000, -1.00000000000000 ) );
#255 = DIRECTION( '', ( 1.00000000000000, 0.000000000000000, 0.000000000000000 ) );
#256 = ORIENTED_EDGE( '', *, *, #322, .T. );
#257 = ORIENTED_EDGE( '', *, *, #323, .F. );
#258 = CARTESIAN_POINT( '', ( 0.000000000000000, 0.000000000000000, 8.50000000000001 ) );
#259 = DIRECTION( '', ( 0.000000000000000, 0.000000000000000, 1.00000000000000 ) );
#260 = DIRECTION( '', ( 1.00000000000000, 0.000000000000000, 0.000000000000000 ) );
#261 = ORIENTED_EDGE( '', *, *, #323, .T. );
#262 = ORIENTED_EDGE( '', *, *, #324, .F. );
#263 = CARTESIAN_POINT( '', ( 0.000000000000000, 0.000000000000000, 9.00000000000000 ) );
#264 = DIRECTION( '', ( 0.000000000000000, 0.000000000000000, -1.00000000000000 ) );
#265 = DIRECTION( '', ( 1.00000000000000, 0.000000000000000, 0.000000000000000 ) );
#266 = ORIENTED_EDGE( '', *, *, #324, .T. );
#267 = ORIENTED_EDGE( '', *, *, #325, .F. );
#268 = CARTESIAN_POINT( '', ( 3.50000000000000, 0.000000000000000, 5.00000000000000 ) );
#269 = DIRECTION( '', ( 0.000000000000000, 0.000000000000000, -1.00000000000000 ) );
#270 = DIRECTION( '', ( -1.00000000000000, 0.000000000000000, 0.000000000000000 ) );
#271 = ORIENTED_EDGE( '', *, *, #325, .T. );
#272 = ORIENTED_EDGE( '', *, *, #326, .F. );
#273 = CARTESIAN_POINT( '', ( 0.000000000000000, 0.000000000000000, 9.00000000000000 ) );
#274 = DIRECTION( '', ( 0.000000000000000, 0.000000000000000, -1.00000000000000 ) );
#275 = DIRECTION( '', ( 1.00000000000000, 0.000000000000000, 0.000000000000000 ) );
#276 = ORIENTED_EDGE( '', *, *, #326, .T. );
#277 = ORIENTED_EDGE( '', *, *, #327, .F. );
#278 = CARTESIAN_POINT( '', ( 4.00000000000000, 0.000000000000000, 4.00000000000000 ) );
#279 = DIRECTION( '', ( 0.000000000000000, 0.000000000000000, -1.00000000000000 ) );
#280 = DIRECTION( '', ( -1.00000000000000, 0.000000000000000, 0.000000000000000 ) );
#281 = ORIENTED_EDGE( '', *, *, #327, .T. );
#282 = ORIENTED_EDGE( '', *, *, #315, .F. );
#283 = CARTESIAN_POINT( '', ( 0.000000000000000, 0.000000000000000, 0.0588154139989413 ) );
#284 = DIRECTION( '', ( 0.000000000000000, 0.000000000000000, -1.00000000000000 ) );
#285 = DIRECTION( '', ( -1.00000000000000, 0.000000000000000, 0.000000000000000 ) );
#286 = ORIENTED_EDGE( '', *, *, #316, .T. );
#287 = ORIENTED_EDGE( '', *, *, #328, .F. );
#288 = CARTESIAN_POINT( '', ( 15.5000000000000, 0.000000000000000, 4.33680868994202E-016 ) );
#289 = DIRECTION( '', ( 0.000000000000000, 0.000000000000000, -1.00000000000000 ) );
#290 = DIRECTION( '', ( -1.00000000000000, 0.000000000000000, 0.000000000000000 ) );
#291 = ORIENTED_EDGE( '', *, *, #328, .T. );
#292 = ORIENTED_EDGE( '', *, *, #329, .F. );
#293 = CARTESIAN_POINT( '', ( 0.000000000000000, 0.000000000000000, 0.500000000000000 ) );
#294 = DIRECTION( '', ( 0.000000000000000, 0.000000000000000, 1.00000000000000 ) );
#295 = DIRECTION( '', ( 1.00000000000000, 0.000000000000000, 0.000000000000000 ) );
#296 = ORIENTED_EDGE( '', *, *, #329, .T. );
#297 = ORIENTED_EDGE( '', *, *, #320, .F. );
#298 = CARTESIAN_POINT( '', ( 0.000000000000000, 0.000000000000000, 4.29166666666668 ) );
#299 = DIRECTION( '', ( 0.000000000000000, 0.000000000000000, -1.00000000000000 ) );
#300 = DIRECTION( '', ( -1.00000000000000, 0.000000000000000, 0.000000000000000 ) );
#301 = EDGE_LOOP( '', ( #330 ) );
#302 = EDGE_LOOP( '', ( #331 ) );
#303 = AXIS2_PLACEMENT_3D( '', #332, #333, #334 );
#304 = EDGE_LOOP( '', ( #335 ) );
#305 = EDGE_LOOP( '', ( #336 ) );
#306 = AXIS2_PLACEMENT_3D( '', #337, #338, #339 );
#307 = EDGE_LOOP( '', ( #340 ) );
#308 = EDGE_LOOP( '', ( #341 ) );
#309 = AXIS2_PLACEMENT_3D( '', #342, #343, #344 );
#310 = EDGE_LOOP( '', ( #345 ) );
#311 = EDGE_LOOP( '', ( #346 ) );
#312 = AXIS2_PLACEMENT_3D( '', #347, #348, #349 );
#313 = EDGE_CURVE( '', #350, #350, #351, .T. );
#314 = EDGE_CURVE( '', #352, #352, #353, .T. );
#315 = EDGE_CURVE( '', #354, #354, #355, .T. );
#316 = EDGE_CURVE( '', #356, #356, #357, .T. );
#317 = EDGE_CURVE( '', #358, #358, #359, .T. );
#318 = EDGE_CURVE( '', #360, #360, #361, .T. );
#319 = EDGE_CURVE( '', #362, #362, #363, .T. );
#320 = EDGE_CURVE( '', #364, #364, #365, .T. );
#321 = EDGE_CURVE( '', #366, #366, #367, .T. );
#322 = EDGE_CURVE( '', #368, #368, #369, .T. );
#323 = EDGE_CURVE( '', #370, #370, #371, .T. );
#324 = EDGE_CURVE( '', #372, #372, #373, .T. );
#325 = EDGE_CURVE( '', #374, #374, #375, .T. );
#326 = EDGE_CURVE( '', #376, #376, #377, .T. );
#327 = EDGE_CURVE( '', #378, #378, #379, .T. );
#328 = EDGE_CURVE( '', #380, #380, #381, .T. );
#329 = EDGE_CURVE( '', #382, #382, #383, .T. );
#330 = ORIENTED_EDGE( '', *, *, #384, .T. );
#331 = ORIENTED_EDGE( '', *, *, #385, .T. );
#332 = CARTESIAN_POINT( '', ( 0.000000000000000, 0.000000000000000, 7.00000000000001 ) );
#333 = DIRECTION( '', ( 0.000000000000000, 0.000000000000000, 1.00000000000000 ) );
#334 = DIRECTION( '', ( 1.00000000000000, 0.000000000000000, 0.000000000000000 ) );
#335 = ORIENTED_EDGE( '', *, *, #385, .F. );
#336 = ORIENTED_EDGE( '', *, *, #386, .F. );
#337 = CARTESIAN_POINT( '', ( 0.000000000000000, 0.000000000000000, -5.47787341772713 ) );
#338 = DIRECTION( '', ( 0.000000000000000, 0.000000000000000, 1.00000000000000 ) );
#339 = DIRECTION( '', ( -1.00000000000000, 0.000000000000000, 0.000000000000000 ) );
#340 = ORIENTED_EDGE( '', *, *, #387, .F. );
#341 = ORIENTED_EDGE( '', *, *, #386, .T. );
#342 = CARTESIAN_POINT( '', ( 0.000000000000000, 0.000000000000000, 6.00000000000001 ) );
#343 = DIRECTION( '', ( 0.000000000000000, 0.000000000000000, 1.00000000000000 ) );
#344 = DIRECTION( '', ( 1.00000000000000, 0.000000000000000, 0.000000000000000 ) );
#345 = ORIENTED_EDGE( '', *, *, #387, .T. );
#346 = ORIENTED_EDGE( '', *, *, #384, .F. );
#347 = CARTESIAN_POINT( '', ( 0.000000000000000, 0.000000000000000, 9.00000000000000 ) );
#348 = DIRECTION( '', ( 0.000000000000000, 0.000000000000000, -1.00000000000000 ) );
#349 = DIRECTION( '', ( 1.00000000000000, 0.000000000000000, 0.000000000000000 ) );
#350 = VERTEX_POINT( '', #388 );
#351 = CIRCLE( '', #389, 7.25000000000000 );
#352 = VERTEX_POINT( '', #390 );
#353 = CIRCLE( '', #391, 7.00000000000000 );
#354 = VERTEX_POINT( '', #392 );
#355 = CIRCLE( '', #393, 14.9779837950975 );
#356 = VERTEX_POINT( '', #394 );
#357 = CIRCLE( '', #395, 15.3158766406477 );
#358 = VERTEX_POINT( '', #396 );
#359 = CIRCLE( '', #397, 7.00000000000000 );
#360 = VERTEX_POINT( '', #398 );
#361 = CIRCLE( '', #399, 7.25000000000000 );
#362 = VERTEX_POINT( '', #400 );
#363 = CIRCLE( '', #401, 7.25000000000001 );
#364 = VERTEX_POINT( '', #402 );
#365 = CIRCLE( '', #403, 7.25000000000000 );
#366 = VERTEX_POINT( '', #404 );
#367 = CIRCLE( '', #405, 3.00000000000000 );
#368 = VERTEX_POINT( '', #406 );
#369 = CIRCLE( '', #407, 3.00000000000000 );
#370 = VERTEX_POINT( '', #408 );
#371 = CIRCLE( '', #409, 2.50000000000000 );
#372 = VERTEX_POINT( '', #410 );
#373 = CIRCLE( '', #411, 2.50000000000000 );
#374 = VERTEX_POINT( '', #412 );
#375 = CIRCLE( '', #413, 3.50000000000000 );
#376 = VERTEX_POINT( '', #414 );
#377 = CIRCLE( '', #415, 3.50000000000000 );
#378 = VERTEX_POINT( '', #416 );
#379 = CIRCLE( '', #417, 4.00000000000000 );
#380 = VERTEX_POINT( '', #418 );
#381 = CIRCLE( '', #419, 15.5000000000000 );
#382 = VERTEX_POINT( '', #420 );
#383 = CIRCLE( '', #421, 16.0000000000000 );
#384 = EDGE_CURVE( '', #422, #422, #423, .T. );
#385 = EDGE_CURVE( '', #424, #424, #425, .T. );
#386 = EDGE_CURVE( '', #426, #426, #427, .T. );
#387 = EDGE_CURVE( '', #428, #428, #429, .T. );
#388 = CARTESIAN_POINT( '', ( 7.25000000000000, 0.000000000000000, 7.50000000000001 ) );
#389 = AXIS2_PLACEMENT_3D( '', #430, #431, #432 );
#390 = CARTESIAN_POINT( '', ( -7.00000000000000, 0.000000000000000, 7.50000000000001 ) );
#391 = AXIS2_PLACEMENT_3D( '', #433, #434, #435 );
#392 = CARTESIAN_POINT( '', ( 14.9779837950975, 0.000000000000000, 0.0588154139989413 ) );
#393 = AXIS2_PLACEMENT_3D( '', #436, #437, #438 );
#394 = CARTESIAN_POINT( '', ( 15.3158766406477, 0.000000000000000, 0.000000000000000 ) );
#395 = AXIS2_PLACEMENT_3D( '', #439, #440, #441 );
#396 = CARTESIAN_POINT( '', ( -7.00000000000000, 0.000000000000000, 5.50000000000001 ) );
#397 = AXIS2_PLACEMENT_3D( '', #442, #443, #444 );
#398 = CARTESIAN_POINT( '', ( 7.25000000000000, 0.000000000000000, 5.50000000000001 ) );
#399 = AXIS2_PLACEMENT_3D( '', #445, #446, #447 );
#400 = CARTESIAN_POINT( '', ( 7.25000000000001, 0.000000000000000, 9.50000000000001 ) );
#401 = AXIS2_PLACEMENT_3D( '', #448, #449, #450 );
#402 = CARTESIAN_POINT( '', ( 7.25000000000000, 0.000000000000000, 4.29166666666668 ) );
#403 = AXIS2_PLACEMENT_3D( '', #451, #452, #453 );
#404 = CARTESIAN_POINT( '', ( 3.00000000000000, 0.000000000000000, 9.50000000000001 ) );
#405 = AXIS2_PLACEMENT_3D( '', #454, #455, #456 );
#406 = CARTESIAN_POINT( '', ( 3.00000000000000, 0.000000000000000, 8.50000000000001 ) );
#407 = AXIS2_PLACEMENT_3D( '', #457, #458, #459 );
#408 = CARTESIAN_POINT( '', ( 2.50000000000000, 0.000000000000000, 8.00000000000001 ) );
#409 = AXIS2_PLACEMENT_3D( '', #460, #461, #462 );
#410 = CARTESIAN_POINT( '', ( 2.50000000000000, 0.000000000000000, 5.00000000000000 ) );
#411 = AXIS2_PLACEMENT_3D( '', #463, #464, #465 );
#412 = CARTESIAN_POINT( '', ( 3.50000000000000, 0.000000000000000, 5.00000000000000 ) );
#413 = AXIS2_PLACEMENT_3D( '', #466, #467, #468 );
#414 = CARTESIAN_POINT( '', ( 3.50000000000000, 0.000000000000000, 4.00000000000000 ) );
#415 = AXIS2_PLACEMENT_3D( '', #469, #470, #471 );
#416 = CARTESIAN_POINT( '', ( 4.00000000000000, 0.000000000000000, 4.00000000000001 ) );
#417 = AXIS2_PLACEMENT_3D( '', #472, #473, #474 );
#418 = CARTESIAN_POINT( '', ( 15.5000000000000, 0.000000000000000, 0.000000000000000 ) );
#419 = AXIS2_PLACEMENT_3D( '', #475, #476, #477 );
#420 = CARTESIAN_POINT( '', ( 16.0000000000000, 0.000000000000000, 0.499999999999980 ) );
#421 = AXIS2_PLACEMENT_3D( '', #478, #479, #480 );
#422 = VERTEX_POINT( '', #481 );
#423 = CIRCLE( '', #482, 4.75000000000000 );
#424 = VERTEX_POINT( '', #483 );
#425 = CIRCLE( '', #484, 5.00000000000000 );
#426 = VERTEX_POINT( '', #485 );
#427 = CIRCLE( '', #486, 5.00000000000000 );
#428 = VERTEX_POINT( '', #487 );
#429 = CIRCLE( '', #488, 4.75000000000000 );
#430 = CARTESIAN_POINT( '', ( 0.000000000000000, 0.000000000000000, 7.50000000000001 ) );
#431 = DIRECTION( '', ( 0.000000000000000, 0.000000000000000, 1.00000000000000 ) );
#432 = DIRECTION( '', ( 1.00000000000000, 0.000000000000000, 0.000000000000000 ) );
#433 = CARTESIAN_POINT( '', ( 0.000000000000000, 0.000000000000000, 7.50000000000001 ) );
#434 = DIRECTION( '', ( 0.000000000000000, 0.000000000000000, -1.00000000000000 ) );
#435 = DIRECTION( '', ( -1.00000000000000, 0.000000000000000, 0.000000000000000 ) );
#436 = CARTESIAN_POINT( '', ( 0.000000000000000, 0.000000000000000, 0.0588154139989413 ) );
#437 = DIRECTION( '', ( 0.000000000000000, 0.000000000000000, 1.00000000000000 ) );
#438 = DIRECTION( '', ( 1.00000000000000, 0.000000000000000, 0.000000000000000 ) );
#439 = CARTESIAN_POINT( '', ( 0.000000000000000, 0.000000000000000, 0.000000000000000 ) );
#440 = DIRECTION( '', ( 0.000000000000000, 0.000000000000000, 1.00000000000000 ) );
#441 = DIRECTION( '', ( 1.00000000000000, 0.000000000000000, 0.000000000000000 ) );
#442 = CARTESIAN_POINT( '', ( 0.000000000000000, 0.000000000000000, 5.50000000000001 ) );
#443 = DIRECTION( '', ( 0.000000000000000, 0.000000000000000, -1.00000000000000 ) );
#444 = DIRECTION( '', ( -1.00000000000000, 0.000000000000000, 0.000000000000000 ) );
#445 = CARTESIAN_POINT( '', ( 0.000000000000000, 0.000000000000000, 5.50000000000001 ) );
#446 = DIRECTION( '', ( 0.000000000000000, 0.000000000000000, 1.00000000000000 ) );
#447 = DIRECTION( '', ( 1.00000000000000, 0.000000000000000, 0.000000000000000 ) );
#448 = CARTESIAN_POINT( '', ( 0.000000000000000, 0.000000000000000, 9.50000000000001 ) );
#449 = DIRECTION( '', ( 0.000000000000000, 0.000000000000000, 1.00000000000000 ) );
#450 = DIRECTION( '', ( 1.00000000000000, 0.000000000000000, 0.000000000000000 ) );
#451 = CARTESIAN_POINT( '', ( 0.000000000000000, 0.000000000000000, 4.29166666666668 ) );
#452 = DIRECTION( '', ( 0.000000000000000, 0.000000000000000, 1.00000000000000 ) );
#453 = DIRECTION( '', ( 1.00000000000000, 0.000000000000000, 0.000000000000000 ) );
#454 = CARTESIAN_POINT( '', ( 0.000000000000000, 0.000000000000000, 9.50000000000001 ) );
#455 = DIRECTION( '', ( 0.000000000000000, 0.000000000000000, 1.00000000000000 ) );
#456 = DIRECTION( '', ( 1.00000000000000, 0.000000000000000, 0.000000000000000 ) );
#457 = CARTESIAN_POINT( '', ( 0.000000000000000, 0.000000000000000, 8.50000000000001 ) );
#458 = DIRECTION( '', ( 0.000000000000000, 0.000000000000000, 1.00000000000000 ) );
#459 = DIRECTION( '', ( 1.00000000000000, 0.000000000000000, 0.000000000000000 ) );
#460 = CARTESIAN_POINT( '', ( 0.000000000000000, 0.000000000000000, 8.00000000000001 ) );
#461 = DIRECTION( '', ( 0.000000000000000, 0.000000000000000, 1.00000000000000 ) );
#462 = DIRECTION( '', ( 1.00000000000000, 0.000000000000000, 0.000000000000000 ) );
#463 = CARTESIAN_POINT( '', ( 0.000000000000000, 0.000000000000000, 5.00000000000000 ) );
#464 = DIRECTION( '', ( 0.000000000000000, 0.000000000000000, 1.00000000000000 ) );
#465 = DIRECTION( '', ( 1.00000000000000, 0.000000000000000, 0.000000000000000 ) );
#466 = CARTESIAN_POINT( '', ( 0.000000000000000, 0.000000000000000, 5.00000000000000 ) );
#467 = DIRECTION( '', ( 0.000000000000000, 0.000000000000000, 1.00000000000000 ) );
#468 = DIRECTION( '', ( 1.00000000000000, 0.000000000000000, 0.000000000000000 ) );
#469 = CARTESIAN_POINT( '', ( 0.000000000000000, 0.000000000000000, 4.00000000000000 ) );
#470 = DIRECTION( '', ( 0.000000000000000, 0.000000000000000, 1.00000000000000 ) );
#471 = DIRECTION( '', ( 1.00000000000000, 0.000000000000000, 0.000000000000000 ) );
#472 = CARTESIAN_POINT( '', ( 0.000000000000000, 0.000000000000000, 4.00000000000001 ) );
#473 = DIRECTION( '', ( 0.000000000000000, 0.000000000000000, 1.00000000000000 ) );
#474 = DIRECTION( '', ( 1.00000000000000, 0.000000000000000, 0.000000000000000 ) );
#475 = CARTESIAN_POINT( '', ( 0.000000000000000, 0.000000000000000, 0.000000000000000 ) );
#476 = DIRECTION( '', ( 0.000000000000000, 0.000000000000000, 1.00000000000000 ) );
#477 = DIRECTION( '', ( 1.00000000000000, 0.000000000000000, 0.000000000000000 ) );
#478 = CARTESIAN_POINT( '', ( 0.000000000000000, 0.000000000000000, 0.499999999999980 ) );
#479 = DIRECTION( '', ( 0.000000000000000, 0.000000000000000, 1.00000000000000 ) );
#480 = DIRECTION( '', ( 1.00000000000000, 0.000000000000000, 0.000000000000000 ) );
#481 = CARTESIAN_POINT( '', ( 4.75000000000000, 0.000000000000000, 7.00000000000001 ) );
#482 = AXIS2_PLACEMENT_3D( '', #489, #490, #491 );
#483 = CARTESIAN_POINT( '', ( -5.00000000000000, 0.000000000000000, 7.43301270189223 ) );
#484 = AXIS2_PLACEMENT_3D( '', #492, #493, #494 );
#485 = CARTESIAN_POINT( '', ( 5.00000000000000, 0.000000000000000, 5.56698729810778 ) );
#486 = AXIS2_PLACEMENT_3D( '', #495, #496, #497 );
#487 = CARTESIAN_POINT( '', ( 4.75000000000000, 0.000000000000000, 6.00000000000001 ) );
#488 = AXIS2_PLACEMENT_3D( '', #498, #499, #500 );
#489 = CARTESIAN_POINT( '', ( 0.000000000000000, 0.000000000000000, 7.00000000000001 ) );
#490 = DIRECTION( '', ( 0.000000000000000, 0.000000000000000, 1.00000000000000 ) );
#491 = DIRECTION( '', ( 1.00000000000000, 0.000000000000000, 0.000000000000000 ) );
#492 = CARTESIAN_POINT( '', ( 0.000000000000000, 0.000000000000000, 7.43301270189223 ) );
#493 = DIRECTION( '', ( 0.000000000000000, 0.000000000000000, -1.00000000000000 ) );
#494 = DIRECTION( '', ( -1.00000000000000, 0.000000000000000, 0.000000000000000 ) );
#495 = CARTESIAN_POINT( '', ( 0.000000000000000, 0.000000000000000, 5.56698729810778 ) );
#496 = DIRECTION( '', ( 0.000000000000000, 0.000000000000000, 1.00000000000000 ) );
#497 = DIRECTION( '', ( 1.00000000000000, 0.000000000000000, 0.000000000000000 ) );
#498 = CARTESIAN_POINT( '', ( 0.000000000000000, 0.000000000000000, 6.00000000000001 ) );
#499 = DIRECTION( '', ( 0.000000000000000, 0.000000000000000, 1.00000000000000 ) );
#500 = DIRECTION( '', ( 1.00000000000000, 0.000000000000000, 0.000000000000000 ) );
ENDSEC;
END-ISO-10303-21;
