ISO-10303-21;
HEADER;
FILE_DESCRIPTION( ( 'PIAB ISM' ), '1' );
FILE_NAME( 'd:/FALUTEKNIK/PROJEKT/8234/Gummidel_U/STEP/PIAB_ISM_3150116.stp', 'Unknown', ( 'MaK' ), ( 'FALUTEKNIK AB' ), 'XStep 1.0', 'Solid Edge V15', ' ' );
FILE_SCHEMA( ( 'CONFIG_CONTROL_DESIGN' ) );
ENDSEC;
DATA;
#1 = DESIGN_CONTEXT( '', #27, 'design' );
#2 = APPLICATION_PROTOCOL_DEFINITION( 'INTERNATIONAL STANDARD', 'config_control_design', 1994, #27 );
#3 = PRODUCT_CATEGORY_RELATIONSHIP( 'NONE', 'NONE', #28, #29 );
#4 = DATE_AND_TIME( #30, #31 );
#5 = DATE_TIME_ROLE( 'creation_date' );
#6 = DATE_TIME_ROLE( 'classification_date' );
#7 = PERSON_AND_ORGANIZATION_ROLE( 'creator' );
#8 = PERSON_AND_ORGANIZATION_ROLE( 'design_supplier' );
#9 = PERSON_AND_ORGANIZATION_ROLE( 'classification_officer' );
#10 = PERSON_AND_ORGANIZATION_ROLE( 'design_owner' );
#11 = APPROVAL_PERSON_ORGANIZATION( #32, #33, #34 );
#12 = APPROVAL_DATE_TIME( #4, #33 );
#13 = CC_DESIGN_APPROVAL( #33, ( #35, #36, #37 ) );
#14 = CC_DESIGN_DATE_AND_TIME_ASSIGNMENT( #4, #5, ( #37 ) );
#15 = CC_DESIGN_DATE_AND_TIME_ASSIGNMENT( #4, #6, ( #35 ) );
#16 = CC_DESIGN_PERSON_AND_ORGANIZATION_ASSIGNMENT( #32, #10, ( #38 ) );
#17 = CC_DESIGN_PERSON_AND_ORGANIZATION_ASSIGNMENT( #32, #7, ( #37 ) );
#18 = CC_DESIGN_PERSON_AND_ORGANIZATION_ASSIGNMENT( #32, #7, ( #36 ) );
#19 = CC_DESIGN_PERSON_AND_ORGANIZATION_ASSIGNMENT( #32, #8, ( #36 ) );
#20 = CC_DESIGN_SECURITY_CLASSIFICATION( #35, ( #36 ) );
#21 = CC_DESIGN_PERSON_AND_ORGANIZATION_ASSIGNMENT( #32, #9, ( #35 ) );
#22 = SHAPE_DEFINITION_REPRESENTATION( #39, #40 );
#23 =  ( GEOMETRIC_REPRESENTATION_CONTEXT( 3 )GLOBAL_UNCERTAINTY_ASSIGNED_CONTEXT( ( #43 ) )GLOBAL_UNIT_ASSIGNED_CONTEXT( ( #45, #46, #47 ) )REPRESENTATION_CONTEXT( 'NONE', 'WORKSPACE' ) );
#27 = APPLICATION_CONTEXT( 'CONFIGURATION CONTROLLED 3D DESIGNS OF MECHANICAL PARTS AND ASSEMBLIES' );
#28 = PRODUCT_CATEGORY( 'part', 'NONE' );
#29 = PRODUCT_RELATED_PRODUCT_CATEGORY( 'detail', ' ', ( #38 ) );
#30 = CALENDAR_DATE( 2004, 13, 3 );
#31 = LOCAL_TIME( 15, 45, 35.0000000000000, #49 );
#32 = PERSON_AND_ORGANIZATION( #50, #51 );
#33 = APPROVAL( #52, 'SOLID MODEL' );
#34 = APPROVAL_ROLE( 'APPROVED' );
#35 = SECURITY_CLASSIFICATION( '', '', #53 );
#36 = PRODUCT_DEFINITION_FORMATION_WITH_SPECIFIED_SOURCE( ' ', 'NONE', #38, .NOT_KNOWN. );
#37 = PRODUCT_DEFINITION( 'NONE', 'NONE', #36, #1 );
#38 = PRODUCT( '1', '1', 'PART-1-DESC', ( #54 ) );
#39 = PRODUCT_DEFINITION_SHAPE( 'NONE', 'NONE', #37 );
#40 = ADVANCED_BREP_SHAPE_REPRESENTATION( '1', ( #55, #56 ), #23 );
#43 = UNCERTAINTY_MEASURE_WITH_UNIT( LENGTH_MEASURE( 0.00100000000000000 ), #45, '', '' );
#45 =  ( CONVERSION_BASED_UNIT( 'MILLIMETRE', #59 )LENGTH_UNIT(  )NAMED_UNIT( #62 ) );
#46 =  ( CONVERSION_BASED_UNIT( 'RADIAN', #64 )NAMED_UNIT( #66 )PLANE_ANGLE_UNIT(  ) );
#47 =  ( NAMED_UNIT( #66 )SOLID_ANGLE_UNIT(  )SI_UNIT( $, .STERADIAN. ) );
#49 = COORDINATED_UNIVERSAL_TIME_OFFSET( 1, 0, .AHEAD. );
#50 = PERSON( '', 'UNSPECIFIED', $, $, $, $ );
#51 = ORGANIZATION( 'UNSPECIFIED', 'UNSPECIFIED', 'UNSPECIFIED' );
#52 = APPROVAL_STATUS( 'approved' );
#53 = SECURITY_CLASSIFICATION_LEVEL( 'unclassified' );
#54 = MECHANICAL_CONTEXT( '', #27, 'mechanical' );
#55 = MANIFOLD_SOLID_BREP( '1', #71 );
#56 = AXIS2_PLACEMENT_3D( '', #72, #73, #74 );
#59 = LENGTH_MEASURE_WITH_UNIT( LENGTH_MEASURE( 1.00000000000000 ), #75 );
#62 = DIMENSIONAL_EXPONENTS( 1.00000000000000, 0.000000000000000, 0.000000000000000, 0.000000000000000, 0.000000000000000, 0.000000000000000, 0.000000000000000 );
#64 = PLANE_ANGLE_MEASURE_WITH_UNIT( PLANE_ANGLE_MEASURE( 1.00000000000000 ), #76 );
#66 = DIMENSIONAL_EXPONENTS( 0.000000000000000, 0.000000000000000, 0.000000000000000, 0.000000000000000, 0.000000000000000, 0.000000000000000, 0.000000000000000 );
#71 = CLOSED_SHELL( '', ( #77, #78, #79, #80, #81, #82, #83, #84, #85, #86 ) );
#72 = CARTESIAN_POINT( '', ( 0.000000000000000, 0.000000000000000, 0.000000000000000 ) );
#73 = DIRECTION( '', ( 0.000000000000000, 0.000000000000000, 1.00000000000000 ) );
#74 = DIRECTION( '', ( 1.00000000000000, 0.000000000000000, 0.000000000000000 ) );
#75 =  ( NAMED_UNIT( #62 )LENGTH_UNIT(  )SI_UNIT( .MILLI., .METRE. ) );
#76 =  ( NAMED_UNIT( #66 )PLANE_ANGLE_UNIT(  )SI_UNIT( $, .RADIAN. ) );
#77 = ADVANCED_FACE( '', ( #89, #90 ), #91, .F. );
#78 = ADVANCED_FACE( '', ( #92, #93 ), #94, .F. );
#79 = ADVANCED_FACE( '', ( #95, #96 ), #97, .F. );
#80 = ADVANCED_FACE( '', ( #98, #99 ), #100, .F. );
#81 = ADVANCED_FACE( '', ( #101, #102 ), #103, .F. );
#82 = ADVANCED_FACE( '', ( #104, #105 ), #106, .F. );
#83 = ADVANCED_FACE( '', ( #107, #108 ), #109, .T. );
#84 = ADVANCED_FACE( '', ( #110, #111 ), #112, .T. );
#85 = ADVANCED_FACE( '', ( #113, #114 ), #115, .T. );
#86 = ADVANCED_FACE( '', ( #116, #117 ), #118, .T. );
#89 = FACE_OUTER_BOUND( '', #119, .T. );
#90 = FACE_BOUND( '', #120, .T. );
#91 = CONICAL_SURFACE( '', #121, 1.00000000000000, 1.25875420523236 );
#92 = FACE_OUTER_BOUND( '', #122, .T. );
#93 = FACE_OUTER_BOUND( '', #123, .T. );
#94 = CYLINDRICAL_SURFACE( '', #124, 1.00000000000000 );
#95 = FACE_BOUND( '', #125, .T. );
#96 = FACE_OUTER_BOUND( '', #126, .T. );
#97 = CONICAL_SURFACE( '', #127, 1.25000000000000, 0.124354994546762 );
#98 = FACE_OUTER_BOUND( '', #128, .T. );
#99 = FACE_BOUND( '', #129, .T. );
#100 = PLANE( '', #130 );
#101 = FACE_OUTER_BOUND( '', #131, .T. );
#102 = FACE_OUTER_BOUND( '', #132, .T. );
#103 = CYLINDRICAL_SURFACE( '', #133, 1.00000000000000 );
#104 = FACE_BOUND( '', #134, .T. );
#105 = FACE_OUTER_BOUND( '', #135, .T. );
#106 = PLANE( '', #136 );
#107 = FACE_OUTER_BOUND( '', #137, .T. );
#108 = FACE_OUTER_BOUND( '', #138, .T. );
#109 = TOROIDAL_SURFACE( '', #139, 2.30885621722338, 0.200000000000000 );
#110 = FACE_OUTER_BOUND( '', #140, .T. );
#111 = FACE_OUTER_BOUND( '', #141, .T. );
#112 = CYLINDRICAL_SURFACE( '', #142, 2.50000000000000 );
#113 = FACE_BOUND( '', #143, .T. );
#114 = FACE_OUTER_BOUND( '', #144, .T. );
#115 = CONICAL_SURFACE( '', #145, 4.50000000000000, 1.06795311586704 );
#116 = FACE_OUTER_BOUND( '', #146, .T. );
#117 = FACE_OUTER_BOUND( '', #147, .T. );
#118 = TOROIDAL_SURFACE( '', #148, 4.10000000000001, 0.399999999999999 );
#119 = EDGE_LOOP( '', ( #149 ) );
#120 = EDGE_LOOP( '', ( #150 ) );
#121 = AXIS2_PLACEMENT_3D( '', #151, #152, #153 );
#122 = EDGE_LOOP( '', ( #154 ) );
#123 = EDGE_LOOP( '', ( #155 ) );
#124 = AXIS2_PLACEMENT_3D( '', #156, #157, #158 );
#125 = EDGE_LOOP( '', ( #159 ) );
#126 = EDGE_LOOP( '', ( #160 ) );
#127 = AXIS2_PLACEMENT_3D( '', #161, #162, #163 );
#128 = EDGE_LOOP( '', ( #164 ) );
#129 = EDGE_LOOP( '', ( #165 ) );
#130 = AXIS2_PLACEMENT_3D( '', #166, #167, #168 );
#131 = EDGE_LOOP( '', ( #169 ) );
#132 = EDGE_LOOP( '', ( #170 ) );
#133 = AXIS2_PLACEMENT_3D( '', #171, #172, #173 );
#134 = EDGE_LOOP( '', ( #174 ) );
#135 = EDGE_LOOP( '', ( #175 ) );
#136 = AXIS2_PLACEMENT_3D( '', #176, #177, #178 );
#137 = EDGE_LOOP( '', ( #179 ) );
#138 = EDGE_LOOP( '', ( #180 ) );
#139 = AXIS2_PLACEMENT_3D( '', #181, #182, #183 );
#140 = EDGE_LOOP( '', ( #184 ) );
#141 = EDGE_LOOP( '', ( #185 ) );
#142 = AXIS2_PLACEMENT_3D( '', #186, #187, #188 );
#143 = EDGE_LOOP( '', ( #189 ) );
#144 = EDGE_LOOP( '', ( #190 ) );
#145 = AXIS2_PLACEMENT_3D( '', #191, #192, #193 );
#146 = EDGE_LOOP( '', ( #194 ) );
#147 = EDGE_LOOP( '', ( #195 ) );
#148 = AXIS2_PLACEMENT_3D( '', #196, #197, #198 );
#149 = ORIENTED_EDGE( '', *, *, #199, .F. );
#150 = ORIENTED_EDGE( '', *, *, #200, .T. );
#151 = CARTESIAN_POINT( '', ( 0.000000000000000, 0.000000000000000, 1.00000000000000 ) );
#152 = DIRECTION( '', ( 0.000000000000000, 0.000000000000000, -1.00000000000000 ) );
#153 = DIRECTION( '', ( -1.00000000000000, 0.000000000000000, 0.000000000000000 ) );
#154 = ORIENTED_EDGE( '', *, *, #200, .F. );
#155 = ORIENTED_EDGE( '', *, *, #201, .T. );
#156 = CARTESIAN_POINT( '', ( 0.000000000000000, 0.000000000000000, 7.60000000000000 ) );
#157 = DIRECTION( '', ( 0.000000000000000, 0.000000000000000, -1.00000000000000 ) );
#158 = DIRECTION( '', ( 1.00000000000000, 0.000000000000000, 0.000000000000000 ) );
#159 = ORIENTED_EDGE( '', *, *, #201, .F. );
#160 = ORIENTED_EDGE( '', *, *, #202, .T. );
#161 = CARTESIAN_POINT( '', ( 0.000000000000000, 0.000000000000000, 3.50000000000000 ) );
#162 = DIRECTION( '', ( 0.000000000000000, 0.000000000000000, 1.00000000000000 ) );
#163 = DIRECTION( '', ( 1.00000000000000, 0.000000000000000, 0.000000000000000 ) );
#164 = ORIENTED_EDGE( '', *, *, #202, .F. );
#165 = ORIENTED_EDGE( '', *, *, #203, .T. );
#166 = CARTESIAN_POINT( '', ( 1.00000000000000, 0.000000000000000, 3.50000000000000 ) );
#167 = DIRECTION( '', ( 0.000000000000000, 0.000000000000000, 1.00000000000000 ) );
#168 = DIRECTION( '', ( 1.00000000000000, 0.000000000000000, 0.000000000000000 ) );
#169 = ORIENTED_EDGE( '', *, *, #203, .F. );
#170 = ORIENTED_EDGE( '', *, *, #204, .T. );
#171 = CARTESIAN_POINT( '', ( 0.000000000000000, 0.000000000000000, 7.60000000000000 ) );
#172 = DIRECTION( '', ( 0.000000000000000, 0.000000000000000, -1.00000000000000 ) );
#173 = DIRECTION( '', ( 1.00000000000000, 0.000000000000000, 0.000000000000000 ) );
#174 = ORIENTED_EDGE( '', *, *, #204, .F. );
#175 = ORIENTED_EDGE( '', *, *, #205, .T. );
#176 = CARTESIAN_POINT( '', ( 1.00000000000000, 0.000000000000000, 7.00000000000000 ) );
#177 = DIRECTION( '', ( 0.000000000000000, 0.000000000000000, -1.00000000000000 ) );
#178 = DIRECTION( '', ( -1.00000000000000, 0.000000000000000, 0.000000000000000 ) );
#179 = ORIENTED_EDGE( '', *, *, #205, .F. );
#180 = ORIENTED_EDGE( '', *, *, #206, .T. );
#181 = CARTESIAN_POINT( '', ( 0.000000000000000, 0.000000000000000, 6.80885621722339 ) );
#182 = DIRECTION( '', ( 0.000000000000000, 0.000000000000000, 1.00000000000000 ) );
#183 = DIRECTION( '', ( 1.00000000000000, 0.000000000000000, 0.000000000000000 ) );
#184 = ORIENTED_EDGE( '', *, *, #206, .F. );
#185 = ORIENTED_EDGE( '', *, *, #207, .T. );
#186 = CARTESIAN_POINT( '', ( 0.000000000000000, 0.000000000000000, 7.60000000000000 ) );
#187 = DIRECTION( '', ( 0.000000000000000, 0.000000000000000, -1.00000000000000 ) );
#188 = DIRECTION( '', ( 1.00000000000000, 0.000000000000000, 0.000000000000000 ) );
#189 = ORIENTED_EDGE( '', *, *, #207, .F. );
#190 = ORIENTED_EDGE( '', *, *, #208, .T. );
#191 = CARTESIAN_POINT( '', ( 0.000000000000000, 0.000000000000000, 0.399999999999998 ) );
#192 = DIRECTION( '', ( 0.000000000000000, 0.000000000000000, -1.00000000000000 ) );
#193 = DIRECTION( '', ( -1.00000000000000, 0.000000000000000, 0.000000000000000 ) );
#194 = ORIENTED_EDGE( '', *, *, #208, .F. );
#195 = ORIENTED_EDGE( '', *, *, #199, .T. );
#196 = CARTESIAN_POINT( '', ( 0.000000000000000, 0.000000000000000, 0.399999999999998 ) );
#197 = DIRECTION( '', ( 0.000000000000000, 0.000000000000000, 1.00000000000000 ) );
#198 = DIRECTION( '', ( 1.00000000000000, 0.000000000000000, 0.000000000000000 ) );
#199 = EDGE_CURVE( '', #209, #209, #210, .T. );
#200 = EDGE_CURVE( '', #211, #211, #212, .T. );
#201 = EDGE_CURVE( '', #213, #213, #214, .T. );
#202 = EDGE_CURVE( '', #215, #215, #216, .T. );
#203 = EDGE_CURVE( '', #217, #217, #218, .T. );
#204 = EDGE_CURVE( '', #219, #219, #220, .T. );
#205 = EDGE_CURVE( '', #221, #221, #222, .T. );
#206 = EDGE_CURVE( '', #223, #223, #224, .T. );
#207 = EDGE_CURVE( '', #225, #225, #226, .T. );
#208 = EDGE_CURVE( '', #227, #227, #228, .T. );
#209 = VERTEX_POINT( '', #229 );
#210 = CIRCLE( '', #230, 4.10000000000001 );
#211 = VERTEX_POINT( '', #231 );
#212 = CIRCLE( '', #232, 1.00000000000000 );
#213 = VERTEX_POINT( '', #233 );
#214 = CIRCLE( '', #234, 1.00000000000000 );
#215 = VERTEX_POINT( '', #235 );
#216 = CIRCLE( '', #236, 1.25000000000000 );
#217 = VERTEX_POINT( '', #237 );
#218 = CIRCLE( '', #238, 1.00000000000000 );
#219 = VERTEX_POINT( '', #239 );
#220 = CIRCLE( '', #240, 1.00000000000000 );
#221 = VERTEX_POINT( '', #241 );
#222 = CIRCLE( '', #242, 2.25000000000000 );
#223 = VERTEX_POINT( '', #243 );
#224 = CIRCLE( '', #244, 2.50000000000000 );
#225 = VERTEX_POINT( '', #245 );
#226 = CIRCLE( '', #246, 2.50000000000000 );
#227 = VERTEX_POINT( '', #247 );
#228 = CIRCLE( '', #248, 4.50000000000000 );
#229 = CARTESIAN_POINT( '', ( 4.10000000000001, 0.000000000000000, 0.000000000000000 ) );
#230 = AXIS2_PLACEMENT_3D( '', #249, #250, #251 );
#231 = CARTESIAN_POINT( '', ( 1.00000000000000, 0.000000000000000, 1.00000000000000 ) );
#232 = AXIS2_PLACEMENT_3D( '', #252, #253, #254 );
#233 = CARTESIAN_POINT( '', ( 1.00000000000000, 0.000000000000000, 1.50000000000000 ) );
#234 = AXIS2_PLACEMENT_3D( '', #255, #256, #257 );
#235 = CARTESIAN_POINT( '', ( 1.25000000000000, 0.000000000000000, 3.50000000000000 ) );
#236 = AXIS2_PLACEMENT_3D( '', #258, #259, #260 );
#237 = CARTESIAN_POINT( '', ( 1.00000000000000, 0.000000000000000, 3.50000000000000 ) );
#238 = AXIS2_PLACEMENT_3D( '', #261, #262, #263 );
#239 = CARTESIAN_POINT( '', ( 1.00000000000000, 0.000000000000000, 7.00000000000000 ) );
#240 = AXIS2_PLACEMENT_3D( '', #264, #265, #266 );
#241 = CARTESIAN_POINT( '', ( 2.25000000000000, 0.000000000000000, 7.00000000000000 ) );
#242 = AXIS2_PLACEMENT_3D( '', #267, #268, #269 );
#243 = CARTESIAN_POINT( '', ( 2.50000000000000, 0.000000000000000, 6.75000000000000 ) );
#244 = AXIS2_PLACEMENT_3D( '', #270, #271, #272 );
#245 = CARTESIAN_POINT( '', ( 2.50000000000000, 0.000000000000000, 1.50000000000000 ) );
#246 = AXIS2_PLACEMENT_3D( '', #273, #274, #275 );
#247 = CARTESIAN_POINT( '', ( 4.50000000000000, 0.000000000000000, 0.399999999999998 ) );
#248 = AXIS2_PLACEMENT_3D( '', #276, #277, #278 );
#249 = CARTESIAN_POINT( '', ( 0.000000000000000, 0.000000000000000, 0.000000000000000 ) );
#250 = DIRECTION( '', ( 0.000000000000000, 0.000000000000000, 1.00000000000000 ) );
#251 = DIRECTION( '', ( 1.00000000000000, 0.000000000000000, 0.000000000000000 ) );
#252 = CARTESIAN_POINT( '', ( 0.000000000000000, 0.000000000000000, 1.00000000000000 ) );
#253 = DIRECTION( '', ( 0.000000000000000, 0.000000000000000, 1.00000000000000 ) );
#254 = DIRECTION( '', ( 1.00000000000000, 0.000000000000000, 0.000000000000000 ) );
#255 = CARTESIAN_POINT( '', ( 0.000000000000000, 0.000000000000000, 1.50000000000000 ) );
#256 = DIRECTION( '', ( 0.000000000000000, 0.000000000000000, 1.00000000000000 ) );
#257 = DIRECTION( '', ( 1.00000000000000, 0.000000000000000, 0.000000000000000 ) );
#258 = CARTESIAN_POINT( '', ( 0.000000000000000, 0.000000000000000, 3.50000000000000 ) );
#259 = DIRECTION( '', ( 0.000000000000000, 0.000000000000000, 1.00000000000000 ) );
#260 = DIRECTION( '', ( 1.00000000000000, 0.000000000000000, 0.000000000000000 ) );
#261 = CARTESIAN_POINT( '', ( 0.000000000000000, 0.000000000000000, 3.50000000000000 ) );
#262 = DIRECTION( '', ( 0.000000000000000, 0.000000000000000, 1.00000000000000 ) );
#263 = DIRECTION( '', ( 1.00000000000000, 0.000000000000000, 0.000000000000000 ) );
#264 = CARTESIAN_POINT( '', ( 0.000000000000000, 0.000000000000000, 7.00000000000000 ) );
#265 = DIRECTION( '', ( 0.000000000000000, 0.000000000000000, 1.00000000000000 ) );
#266 = DIRECTION( '', ( 1.00000000000000, 0.000000000000000, 0.000000000000000 ) );
#267 = CARTESIAN_POINT( '', ( 0.000000000000000, 0.000000000000000, 7.00000000000000 ) );
#268 = DIRECTION( '', ( 0.000000000000000, 0.000000000000000, 1.00000000000000 ) );
#269 = DIRECTION( '', ( 1.00000000000000, 0.000000000000000, 0.000000000000000 ) );
#270 = CARTESIAN_POINT( '', ( 0.000000000000000, 0.000000000000000, 6.75000000000000 ) );
#271 = DIRECTION( '', ( 0.000000000000000, 0.000000000000000, 1.00000000000000 ) );
#272 = DIRECTION( '', ( 1.00000000000000, 0.000000000000000, 0.000000000000000 ) );
#273 = CARTESIAN_POINT( '', ( 0.000000000000000, 0.000000000000000, 1.50000000000000 ) );
#274 = DIRECTION( '', ( 0.000000000000000, 0.000000000000000, 1.00000000000000 ) );
#275 = DIRECTION( '', ( 1.00000000000000, 0.000000000000000, 0.000000000000000 ) );
#276 = CARTESIAN_POINT( '', ( 0.000000000000000, 0.000000000000000, 0.399999999999998 ) );
#277 = DIRECTION( '', ( 0.000000000000000, 0.000000000000000, 1.00000000000000 ) );
#278 = DIRECTION( '', ( 1.00000000000000, 0.000000000000000, 0.000000000000000 ) );
ENDSEC;
END-ISO-10303-21;
