ISO-10303-21;
HEADER;
FILE_DESCRIPTION( ( 'Unknown' ), '1' );
FILE_NAME( 'C:/Users/nicnil/Desktop/Sugkoppar/B10-2/Piab_Solid_0128692_stp_format/New/0128692.new.stp', 'Unknown', ( 'Unknown' ), ( 'Unknown' ), 'PSStep 17.0.49', 'Unknown', '  ' );
FILE_SCHEMA( ( 'AUTOMOTIVE_DESIGN { 1 0 10303 214 1 1 1 1 }' ) );
ENDSEC;
DATA;
#1 = MECHANICAL_DESIGN_GEOMETRIC_PRESENTATION_REPRESENTATION( ' ', ( #10, #11, #12, #13, #14, #15, #16, #17, #18, #19, #20, #21, #22, #23, #24, #25 ), #6 );
#2 = PRODUCT_DEFINITION_CONTEXT( '', #26, 'design' );
#3 = APPLICATION_PROTOCOL_DEFINITION( 'international standard', 'automotive_design', 2001, #26 );
#4 = PRODUCT_CATEGORY_RELATIONSHIP( 'NONE', 'NONE', #27, #28 );
#5 = SHAPE_DEFINITION_REPRESENTATION( #29, #30 );
#6 =  ( GEOMETRIC_REPRESENTATION_CONTEXT( 3 )GLOBAL_UNCERTAINTY_ASSIGNED_CONTEXT( ( #33 ) )GLOBAL_UNIT_ASSIGNED_CONTEXT( ( #35, #36, #37 ) )REPRESENTATION_CONTEXT( 'NONE', 'WORKSPACE' ) );
#10 = STYLED_ITEM( '', ( #39 ), #40 );
#11 = STYLED_ITEM( '', ( #41 ), #42 );
#12 = STYLED_ITEM( '', ( #43 ), #44 );
#13 = STYLED_ITEM( '', ( #45 ), #46 );
#14 = STYLED_ITEM( '', ( #47 ), #48 );
#15 = STYLED_ITEM( '', ( #49 ), #50 );
#16 = STYLED_ITEM( '', ( #51 ), #52 );
#17 = STYLED_ITEM( '', ( #53 ), #54 );
#18 = STYLED_ITEM( '', ( #55 ), #56 );
#19 = STYLED_ITEM( '', ( #57 ), #58 );
#20 = STYLED_ITEM( '', ( #59 ), #60 );
#21 = STYLED_ITEM( '', ( #61 ), #62 );
#22 = STYLED_ITEM( '', ( #63 ), #64 );
#23 = STYLED_ITEM( '', ( #65 ), #66 );
#24 = STYLED_ITEM( '', ( #67 ), #68 );
#25 = STYLED_ITEM( '', ( #69 ), #70 );
#26 = APPLICATION_CONTEXT( 'core data for automotive mechanical design processes' );
#27 = PRODUCT_CATEGORY( 'part', 'NONE' );
#28 = PRODUCT_RELATED_PRODUCT_CATEGORY( 'detail', ' ', ( #71 ) );
#29 = PRODUCT_DEFINITION_SHAPE( 'NONE', 'NONE', #72 );
#30 = ADVANCED_BREP_SHAPE_REPRESENTATION( '1', ( #73, #74 ), #6 );
#33 = UNCERTAINTY_MEASURE_WITH_UNIT( LENGTH_MEASURE( 0.00100000000000000 ), #35, '', '' );
#35 =  ( CONVERSION_BASED_UNIT( 'MILLIMETRE', #77 )LENGTH_UNIT(  )NAMED_UNIT( #80 ) );
#36 =  ( NAMED_UNIT( #82 )PLANE_ANGLE_UNIT(  )SI_UNIT( $, .RADIAN. ) );
#37 =  ( NAMED_UNIT( #82 )SI_UNIT( $, .STERADIAN. )SOLID_ANGLE_UNIT(  ) );
#39 = PRESENTATION_STYLE_ASSIGNMENT( ( #88 ) );
#40 = ADVANCED_FACE( '', ( #89 ), #90, .F. );
#41 = PRESENTATION_STYLE_ASSIGNMENT( ( #91 ) );
#42 = ADVANCED_FACE( '', ( #92, #93 ), #94, .T. );
#43 = PRESENTATION_STYLE_ASSIGNMENT( ( #95 ) );
#44 = ADVANCED_FACE( '', ( #96, #97 ), #98, .F. );
#45 = PRESENTATION_STYLE_ASSIGNMENT( ( #99 ) );
#46 = ADVANCED_FACE( '', ( #100, #101 ), #102, .F. );
#47 = PRESENTATION_STYLE_ASSIGNMENT( ( #103 ) );
#48 = ADVANCED_FACE( '', ( #104, #105 ), #106, .F. );
#49 = PRESENTATION_STYLE_ASSIGNMENT( ( #107 ) );
#50 = ADVANCED_FACE( '', ( #108, #109 ), #110, .T. );
#51 = PRESENTATION_STYLE_ASSIGNMENT( ( #111 ) );
#52 = ADVANCED_FACE( '', ( #112, #113 ), #114, .F. );
#53 = PRESENTATION_STYLE_ASSIGNMENT( ( #115 ) );
#54 = ADVANCED_FACE( '', ( #116, #117 ), #118, .T. );
#55 = PRESENTATION_STYLE_ASSIGNMENT( ( #119 ) );
#56 = ADVANCED_FACE( '', ( #120, #121 ), #122, .T. );
#57 = PRESENTATION_STYLE_ASSIGNMENT( ( #123 ) );
#58 = ADVANCED_FACE( '', ( #124, #125, #126 ), #127, .T. );
#59 = PRESENTATION_STYLE_ASSIGNMENT( ( #128 ) );
#60 = ADVANCED_FACE( '', ( #129, #130 ), #131, .F. );
#61 = PRESENTATION_STYLE_ASSIGNMENT( ( #132 ) );
#62 = ADVANCED_FACE( '', ( #133, #134 ), #135, .F. );
#63 = PRESENTATION_STYLE_ASSIGNMENT( ( #136 ) );
#64 = ADVANCED_FACE( '', ( #137, #138 ), #139, .F. );
#65 = PRESENTATION_STYLE_ASSIGNMENT( ( #140 ) );
#66 = ADVANCED_FACE( '', ( #141 ), #142, .F. );
#67 = PRESENTATION_STYLE_ASSIGNMENT( ( #143 ) );
#68 = ADVANCED_FACE( '', ( #144, #145 ), #146, .T. );
#69 = PRESENTATION_STYLE_ASSIGNMENT( ( #147 ) );
#70 = ADVANCED_FACE( '', ( #148, #149 ), #150, .T. );
#71 = PRODUCT( '1', '1', 'PART-1-DESC', ( #151 ) );
#72 = PRODUCT_DEFINITION( 'NONE', 'NONE', #152, #2 );
#73 = MANIFOLD_SOLID_BREP( '1', #153 );
#74 = AXIS2_PLACEMENT_3D( '', #154, #155, #156 );
#77 = LENGTH_MEASURE_WITH_UNIT( LENGTH_MEASURE( 1.00000000000000 ), #157 );
#80 = DIMENSIONAL_EXPONENTS( 1.00000000000000, 0.000000000000000, 0.000000000000000, 0.000000000000000, 0.000000000000000, 0.000000000000000, 0.000000000000000 );
#82 = DIMENSIONAL_EXPONENTS( 0.000000000000000, 0.000000000000000, 0.000000000000000, 0.000000000000000, 0.000000000000000, 0.000000000000000, 0.000000000000000 );
#88 = SURFACE_STYLE_USAGE( .BOTH., #158 );
#89 = FACE_OUTER_BOUND( '', #159, .T. );
#90 = PLANE( '', #160 );
#91 = SURFACE_STYLE_USAGE( .BOTH., #161 );
#92 = FACE_OUTER_BOUND( '', #162, .T. );
#93 = FACE_BOUND( '', #163, .T. );
#94 = CONICAL_SURFACE( '', #164, 5.88723108628689, 0.865657519615999 );
#95 = SURFACE_STYLE_USAGE( .BOTH., #165 );
#96 = FACE_OUTER_BOUND( '', #166, .T. );
#97 = FACE_OUTER_BOUND( '', #167, .T. );
#98 = CYLINDRICAL_SURFACE( '', #168, 1.90000000000000 );
#99 = SURFACE_STYLE_USAGE( .BOTH., #169 );
#100 = FACE_OUTER_BOUND( '', #170, .T. );
#101 = FACE_BOUND( '', #171, .T. );
#102 = CONICAL_SURFACE( '', #172, 1.90000000000000, 0.108661215840588 );
#103 = SURFACE_STYLE_USAGE( .BOTH., #173 );
#104 = FACE_OUTER_BOUND( '', #174, .T. );
#105 = FACE_OUTER_BOUND( '', #175, .T. );
#106 = CYLINDRICAL_SURFACE( '', #176, 1.90000000000000 );
#107 = SURFACE_STYLE_USAGE( .BOTH., #177 );
#108 = FACE_OUTER_BOUND( '', #178, .T. );
#109 = FACE_BOUND( '', #179, .T. );
#110 = CONICAL_SURFACE( '', #180, 4.50000000000000, 0.869037505050380 );
#111 = SURFACE_STYLE_USAGE( .BOTH., #181 );
#112 = FACE_OUTER_BOUND( '', #182, .T. );
#113 = FACE_BOUND( '', #183, .T. );
#114 = PLANE( '', #184 );
#115 = SURFACE_STYLE_USAGE( .BOTH., #185 );
#116 = FACE_OUTER_BOUND( '', #186, .T. );
#117 = FACE_BOUND( '', #187, .T. );
#118 = CONICAL_SURFACE( '', #188, 3.98338036568708, 0.869037364719444 );
#119 = SURFACE_STYLE_USAGE( .BOTH., #189 );
#120 = FACE_OUTER_BOUND( '', #190, .T. );
#121 = FACE_OUTER_BOUND( '', #191, .T. );
#122 = TOROIDAL_SURFACE( '', #192, 5.04562711363430, 0.458068399830363 );
#123 = SURFACE_STYLE_USAGE( .BOTH., #193 );
#124 = FACE_BOUND( '', #194, .T. );
#125 = FACE_OUTER_BOUND( '', #195, .T. );
#126 = FACE_OUTER_BOUND( '', #196, .T. );
#127 = TOROIDAL_SURFACE( '', #197, 5.50000000000000, 0.500000000000000 );
#128 = SURFACE_STYLE_USAGE( .BOTH., #198 );
#129 = FACE_OUTER_BOUND( '', #199, .T. );
#130 = FACE_OUTER_BOUND( '', #200, .T. );
#131 = TOROIDAL_SURFACE( '', #201, 3.49999999999996, 0.499999999999975 );
#132 = SURFACE_STYLE_USAGE( .BOTH., #202 );
#133 = FACE_BOUND( '', #203, .T. );
#134 = FACE_OUTER_BOUND( '', #204, .T. );
#135 = CONICAL_SURFACE( '', #205, 4.85918283908781, 0.955486870070539 );
#136 = SURFACE_STYLE_USAGE( .BOTH., #206 );
#137 = FACE_OUTER_BOUND( '', #207, .T. );
#138 = FACE_BOUND( '', #208, .T. );
#139 = PLANE( '', #209 );
#140 = SURFACE_STYLE_USAGE( .BOTH., #210 );
#141 = FACE_OUTER_BOUND( '', #211, .T. );
#142 = PLANE( '', #212 );
#143 = SURFACE_STYLE_USAGE( .BOTH., #213 );
#144 = FACE_OUTER_BOUND( '', #214, .T. );
#145 = FACE_BOUND( '', #215, .T. );
#146 = CONICAL_SURFACE( '', #216, 3.28606123086602, 1.12865313879194 );
#147 = SURFACE_STYLE_USAGE( .BOTH., #217 );
#148 = FACE_OUTER_BOUND( '', #218, .T. );
#149 = FACE_OUTER_BOUND( '', #219, .T. );
#150 = CYLINDRICAL_SURFACE( '', #220, 4.50000000000000 );
#151 = PRODUCT_CONTEXT( '', #26, 'mechanical' );
#152 = PRODUCT_DEFINITION_FORMATION_WITH_SPECIFIED_SOURCE( ' ', 'NONE', #71, .NOT_KNOWN. );
#153 = CLOSED_SHELL( '', ( #58, #50, #42, #62, #56, #68, #60, #54, #64, #40, #66, #70, #48, #46, #44, #52 ) );
#154 = CARTESIAN_POINT( '', ( 0.000000000000000, 0.000000000000000, 0.000000000000000 ) );
#155 = DIRECTION( '', ( 0.000000000000000, 0.000000000000000, 1.00000000000000 ) );
#156 = DIRECTION( '', ( 1.00000000000000, 0.000000000000000, 0.000000000000000 ) );
#157 =  ( LENGTH_UNIT(  )NAMED_UNIT( #80 )SI_UNIT( .MILLI., .METRE. ) );
#158 = SURFACE_SIDE_STYLE( '', ( #222 ) );
#159 = EDGE_LOOP( '', ( #223 ) );
#160 = AXIS2_PLACEMENT_3D( '', #224, #225, #226 );
#161 = SURFACE_SIDE_STYLE( '', ( #227 ) );
#162 = EDGE_LOOP( '', ( #228 ) );
#163 = EDGE_LOOP( '', ( #229 ) );
#164 = AXIS2_PLACEMENT_3D( '', #230, #231, #232 );
#165 = SURFACE_SIDE_STYLE( '', ( #233 ) );
#166 = EDGE_LOOP( '', ( #234 ) );
#167 = EDGE_LOOP( '', ( #235 ) );
#168 = AXIS2_PLACEMENT_3D( '', #236, #237, #238 );
#169 = SURFACE_SIDE_STYLE( '', ( #239 ) );
#170 = EDGE_LOOP( '', ( #240 ) );
#171 = EDGE_LOOP( '', ( #241 ) );
#172 = AXIS2_PLACEMENT_3D( '', #242, #243, #244 );
#173 = SURFACE_SIDE_STYLE( '', ( #245 ) );
#174 = EDGE_LOOP( '', ( #246 ) );
#175 = EDGE_LOOP( '', ( #247 ) );
#176 = AXIS2_PLACEMENT_3D( '', #248, #249, #250 );
#177 = SURFACE_SIDE_STYLE( '', ( #251 ) );
#178 = EDGE_LOOP( '', ( #252 ) );
#179 = EDGE_LOOP( '', ( #253 ) );
#180 = AXIS2_PLACEMENT_3D( '', #254, #255, #256 );
#181 = SURFACE_SIDE_STYLE( '', ( #257 ) );
#182 = EDGE_LOOP( '', ( #258 ) );
#183 = EDGE_LOOP( '', ( #259 ) );
#184 = AXIS2_PLACEMENT_3D( '', #260, #261, #262 );
#185 = SURFACE_SIDE_STYLE( '', ( #263 ) );
#186 = EDGE_LOOP( '', ( #264 ) );
#187 = EDGE_LOOP( '', ( #265 ) );
#188 = AXIS2_PLACEMENT_3D( '', #266, #267, #268 );
#189 = SURFACE_SIDE_STYLE( '', ( #269 ) );
#190 = EDGE_LOOP( '', ( #270 ) );
#191 = EDGE_LOOP( '', ( #271 ) );
#192 = AXIS2_PLACEMENT_3D( '', #272, #273, #274 );
#193 = SURFACE_SIDE_STYLE( '', ( #275 ) );
#194 = VERTEX_LOOP( '', #276 );
#195 = EDGE_LOOP( '', ( #277 ) );
#196 = EDGE_LOOP( '', ( #278 ) );
#197 = AXIS2_PLACEMENT_3D( '', #279, #280, #281 );
#198 = SURFACE_SIDE_STYLE( '', ( #282 ) );
#199 = EDGE_LOOP( '', ( #283 ) );
#200 = EDGE_LOOP( '', ( #284 ) );
#201 = AXIS2_PLACEMENT_3D( '', #285, #286, #287 );
#202 = SURFACE_SIDE_STYLE( '', ( #288 ) );
#203 = EDGE_LOOP( '', ( #289 ) );
#204 = EDGE_LOOP( '', ( #290 ) );
#205 = AXIS2_PLACEMENT_3D( '', #291, #292, #293 );
#206 = SURFACE_SIDE_STYLE( '', ( #294 ) );
#207 = EDGE_LOOP( '', ( #295 ) );
#208 = EDGE_LOOP( '', ( #296 ) );
#209 = AXIS2_PLACEMENT_3D( '', #297, #298, #299 );
#210 = SURFACE_SIDE_STYLE( '', ( #300 ) );
#211 = EDGE_LOOP( '', ( #301 ) );
#212 = AXIS2_PLACEMENT_3D( '', #302, #303, #304 );
#213 = SURFACE_SIDE_STYLE( '', ( #305 ) );
#214 = EDGE_LOOP( '', ( #306 ) );
#215 = EDGE_LOOP( '', ( #307 ) );
#216 = AXIS2_PLACEMENT_3D( '', #308, #309, #310 );
#217 = SURFACE_SIDE_STYLE( '', ( #311 ) );
#218 = EDGE_LOOP( '', ( #312 ) );
#219 = EDGE_LOOP( '', ( #313 ) );
#220 = AXIS2_PLACEMENT_3D( '', #314, #315, #316 );
#222 = SURFACE_STYLE_FILL_AREA( #317 );
#223 = ORIENTED_EDGE( '', *, *, #318, .T. );
#224 = CARTESIAN_POINT( '', ( -5.75314971204618E-031, 0.000000000000000, 2.82013798808517E-014 ) );
#225 = DIRECTION( '', ( -4.77540554951924E-016, 0.000000000000000, 1.00000000000000 ) );
#226 = DIRECTION( '', ( 1.00000000000000, 0.000000000000000, 4.77540554951924E-016 ) );
#227 = SURFACE_STYLE_FILL_AREA( #319 );
#228 = ORIENTED_EDGE( '', *, *, #320, .T. );
#229 = ORIENTED_EDGE( '', *, *, #321, .F. );
#230 = CARTESIAN_POINT( '', ( 0.000000000000000, 0.000000000000000, 4.58368988980271 ) );
#231 = DIRECTION( '', ( -0.000000000000000, -0.000000000000000, 1.00000000000000 ) );
#232 = DIRECTION( '', ( 1.00000000000000, 0.000000000000000, 0.000000000000000 ) );
#233 = SURFACE_STYLE_FILL_AREA( #322 );
#234 = ORIENTED_EDGE( '', *, *, #323, .T. );
#235 = ORIENTED_EDGE( '', *, *, #324, .F. );
#236 = CARTESIAN_POINT( '', ( 0.000000000000000, 0.000000000000000, 17.0469649000623 ) );
#237 = DIRECTION( '', ( -0.000000000000000, -0.000000000000000, -1.00000000000000 ) );
#238 = DIRECTION( '', ( -1.00000000000000, 0.000000000000000, 0.000000000000000 ) );
#239 = SURFACE_STYLE_FILL_AREA( #325 );
#240 = ORIENTED_EDGE( '', *, *, #326, .F. );
#241 = ORIENTED_EDGE( '', *, *, #327, .T. );
#242 = CARTESIAN_POINT( '', ( 0.000000000000000, 0.000000000000000, 7.90000000000000 ) );
#243 = DIRECTION( '', ( -0.000000000000000, -0.000000000000000, 1.00000000000000 ) );
#244 = DIRECTION( '', ( 1.00000000000000, 0.000000000000000, 0.000000000000000 ) );
#245 = SURFACE_STYLE_FILL_AREA( #328 );
#246 = ORIENTED_EDGE( '', *, *, #329, .T. );
#247 = ORIENTED_EDGE( '', *, *, #327, .F. );
#248 = CARTESIAN_POINT( '', ( 0.000000000000000, 0.000000000000000, 17.0469649000623 ) );
#249 = DIRECTION( '', ( -0.000000000000000, -0.000000000000000, -1.00000000000000 ) );
#250 = DIRECTION( '', ( -1.00000000000000, 0.000000000000000, 0.000000000000000 ) );
#251 = SURFACE_STYLE_FILL_AREA( #330 );
#252 = ORIENTED_EDGE( '', *, *, #331, .F. );
#253 = ORIENTED_EDGE( '', *, *, #332, .T. );
#254 = CARTESIAN_POINT( '', ( 0.000000000000000, 0.000000000000000, 6.40000000000000 ) );
#255 = DIRECTION( '', ( -0.000000000000000, 0.000000000000000, -1.00000000000000 ) );
#256 = DIRECTION( '', ( -1.00000000000000, 0.000000000000000, 0.000000000000000 ) );
#257 = SURFACE_STYLE_FILL_AREA( #333 );
#258 = ORIENTED_EDGE( '', *, *, #334, .F. );
#259 = ORIENTED_EDGE( '', *, *, #324, .T. );
#260 = CARTESIAN_POINT( '', ( -1.90000000000000, 0.000000000000000, 16.4000000000000 ) );
#261 = DIRECTION( '', ( 0.000000000000000, 0.000000000000000, -1.00000000000000 ) );
#262 = DIRECTION( '', ( 0.000000000000000, -1.00000000000000, 0.000000000000000 ) );
#263 = SURFACE_STYLE_FILL_AREA( #335 );
#264 = ORIENTED_EDGE( '', *, *, #321, .T. );
#265 = ORIENTED_EDGE( '', *, *, #336, .F. );
#266 = CARTESIAN_POINT( '', ( 0.000000000000000, 0.000000000000000, 2.96330125868924 ) );
#267 = DIRECTION( '', ( -0.000000000000000, -0.000000000000000, 1.00000000000000 ) );
#268 = DIRECTION( '', ( 1.00000000000000, 0.000000000000000, 0.000000000000000 ) );
#269 = SURFACE_STYLE_FILL_AREA( #337 );
#270 = ORIENTED_EDGE( '', *, *, #338, .T. );
#271 = ORIENTED_EDGE( '', *, *, #318, .F. );
#272 = CARTESIAN_POINT( '', ( 0.000000000000000, 0.000000000000000, 0.458068399830390 ) );
#273 = DIRECTION( '', ( 0.000000000000000, 0.000000000000000, -1.00000000000000 ) );
#274 = DIRECTION( '', ( -1.00000000000000, 0.000000000000000, 0.000000000000000 ) );
#275 = SURFACE_STYLE_FILL_AREA( #339 );
#276 = VERTEX_POINT( '', #340 );
#277 = ORIENTED_EDGE( '', *, *, #331, .T. );
#278 = ORIENTED_EDGE( '', *, *, #320, .F. );
#279 = CARTESIAN_POINT( '', ( 0.000000000000000, 0.000000000000000, 4.90000000000000 ) );
#280 = DIRECTION( '', ( 0.000000000000000, 0.000000000000000, -1.00000000000000 ) );
#281 = DIRECTION( '', ( -1.00000000000000, 0.000000000000000, 0.000000000000000 ) );
#282 = SURFACE_STYLE_FILL_AREA( #341 );
#283 = ORIENTED_EDGE( '', *, *, #336, .T. );
#284 = ORIENTED_EDGE( '', *, *, #342, .F. );
#285 = CARTESIAN_POINT( '', ( 0.000000000000000, 0.000000000000000, 1.90000000000000 ) );
#286 = DIRECTION( '', ( 0.000000000000000, 0.000000000000000, -1.00000000000000 ) );
#287 = DIRECTION( '', ( -1.00000000000000, 0.000000000000000, 0.000000000000000 ) );
#288 = SURFACE_STYLE_FILL_AREA( #343 );
#289 = ORIENTED_EDGE( '', *, *, #329, .F. );
#290 = ORIENTED_EDGE( '', *, *, #344, .F. );
#291 = CARTESIAN_POINT( '', ( 0.000000000000000, 0.000000000000000, 5.30829736670681 ) );
#292 = DIRECTION( '', ( -0.000000000000000, 0.000000000000000, -1.00000000000000 ) );
#293 = DIRECTION( '', ( -1.00000000000000, 0.000000000000000, 0.000000000000000 ) );
#294 = SURFACE_STYLE_FILL_AREA( #345 );
#295 = ORIENTED_EDGE( '', *, *, #326, .T. );
#296 = ORIENTED_EDGE( '', *, *, #323, .F. );
#297 = CARTESIAN_POINT( '', ( -2.50000000000000, 0.000000000000000, 13.4000000000000 ) );
#298 = DIRECTION( '', ( 0.000000000000000, 0.000000000000000, 1.00000000000000 ) );
#299 = DIRECTION( '', ( 1.00000000000000, 0.000000000000000, 0.000000000000000 ) );
#300 = SURFACE_STYLE_FILL_AREA( #346 );
#301 = ORIENTED_EDGE( '', *, *, #344, .T. );
#302 = CARTESIAN_POINT( '', ( -4.50000000000000, 0.000000000000000, 6.40000000000000 ) );
#303 = DIRECTION( '', ( 4.77540554951924E-016, 0.000000000000000, -1.00000000000000 ) );
#304 = DIRECTION( '', ( -1.00000000000000, 0.000000000000000, -4.77540554951924E-016 ) );
#305 = SURFACE_STYLE_FILL_AREA( #347 );
#306 = ORIENTED_EDGE( '', *, *, #338, .F. );
#307 = ORIENTED_EDGE( '', *, *, #342, .T. );
#308 = CARTESIAN_POINT( '', ( 0.000000000000000, 0.000000000000000, 1.44808164115471 ) );
#309 = DIRECTION( '', ( -0.000000000000000, 0.000000000000000, -1.00000000000000 ) );
#310 = DIRECTION( '', ( -1.00000000000000, 0.000000000000000, 0.000000000000000 ) );
#311 = SURFACE_STYLE_FILL_AREA( #348 );
#312 = ORIENTED_EDGE( '', *, *, #334, .T. );
#313 = ORIENTED_EDGE( '', *, *, #332, .F. );
#314 = CARTESIAN_POINT( '', ( 0.000000000000000, 0.000000000000000, 17.0469649000623 ) );
#315 = DIRECTION( '', ( -0.000000000000000, -0.000000000000000, -1.00000000000000 ) );
#316 = DIRECTION( '', ( -1.00000000000000, 0.000000000000000, 0.000000000000000 ) );
#317 = FILL_AREA_STYLE( '', ( #349 ) );
#318 = EDGE_CURVE( '', #350, #350, #351, .T. );
#319 = FILL_AREA_STYLE( '', ( #352 ) );
#320 = EDGE_CURVE( '', #353, #353, #354, .T. );
#321 = EDGE_CURVE( '', #355, #355, #356, .T. );
#322 = FILL_AREA_STYLE( '', ( #357 ) );
#323 = EDGE_CURVE( '', #358, #358, #359, .T. );
#324 = EDGE_CURVE( '', #360, #360, #361, .T. );
#325 = FILL_AREA_STYLE( '', ( #362 ) );
#326 = EDGE_CURVE( '', #363, #363, #364, .T. );
#327 = EDGE_CURVE( '', #365, #365, #366, .T. );
#328 = FILL_AREA_STYLE( '', ( #367 ) );
#329 = EDGE_CURVE( '', #368, #368, #369, .T. );
#330 = FILL_AREA_STYLE( '', ( #370 ) );
#331 = EDGE_CURVE( '', #371, #371, #372, .T. );
#332 = EDGE_CURVE( '', #373, #373, #374, .T. );
#333 = FILL_AREA_STYLE( '', ( #375 ) );
#334 = EDGE_CURVE( '', #376, #376, #377, .T. );
#335 = FILL_AREA_STYLE( '', ( #378 ) );
#336 = EDGE_CURVE( '', #379, #379, #380, .T. );
#337 = FILL_AREA_STYLE( '', ( #381 ) );
#338 = EDGE_CURVE( '', #382, #382, #383, .T. );
#339 = FILL_AREA_STYLE( '', ( #384 ) );
#340 = CARTESIAN_POINT( '', ( -6.00000000000000, 0.000000000000000, 4.90000000000000 ) );
#341 = FILL_AREA_STYLE( '', ( #385 ) );
#342 = EDGE_CURVE( '', #386, #386, #387, .T. );
#343 = FILL_AREA_STYLE( '', ( #388 ) );
#344 = EDGE_CURVE( '', #389, #389, #390, .F. );
#345 = FILL_AREA_STYLE( '', ( #391 ) );
#346 = FILL_AREA_STYLE( '', ( #392 ) );
#347 = FILL_AREA_STYLE( '', ( #393 ) );
#348 = FILL_AREA_STYLE( '', ( #394 ) );
#349 = FILL_AREA_STYLE_COLOUR( '', #395 );
#350 = VERTEX_POINT( '', #396 );
#351 = CIRCLE( '', #397, 5.04562711363430 );
#352 = FILL_AREA_STYLE_COLOUR( '', #398 );
#353 = VERTEX_POINT( '', #399 );
#354 = CIRCLE( '', #400, 5.88723108628689 );
#355 = VERTEX_POINT( '', #401 );
#356 = CIRCLE( '', #402, 3.98338036568708 );
#357 = FILL_AREA_STYLE_COLOUR( '', #403 );
#358 = VERTEX_POINT( '', #404 );
#359 = CIRCLE( '', #405, 1.90000000000000 );
#360 = VERTEX_POINT( '', #406 );
#361 = CIRCLE( '', #407, 1.90000000000000 );
#362 = FILL_AREA_STYLE_COLOUR( '', #408 );
#363 = VERTEX_POINT( '', #409 );
#364 = CIRCLE( '', #410, 2.50000000000000 );
#365 = VERTEX_POINT( '', #411 );
#366 = CIRCLE( '', #412, 1.90000000000000 );
#367 = FILL_AREA_STYLE_COLOUR( '', #413 );
#368 = VERTEX_POINT( '', #414 );
#369 = CIRCLE( '', #415, 1.90000000000000 );
#370 = FILL_AREA_STYLE_COLOUR( '', #416 );
#371 = VERTEX_POINT( '', #417 );
#372 = CIRCLE( '', #418, 5.82278095559282 );
#373 = VERTEX_POINT( '', #419 );
#374 = CIRCLE( '', #420, 4.50000000000000 );
#375 = FILL_AREA_STYLE_COLOUR( '', #421 );
#376 = VERTEX_POINT( '', #422 );
#377 = CIRCLE( '', #423, 4.50000000000000 );
#378 = FILL_AREA_STYLE_COLOUR( '', #424 );
#379 = VERTEX_POINT( '', #425 );
#380 = CIRCLE( '', #426, 3.17775177969986 );
#381 = FILL_AREA_STYLE_COLOUR( '', #427 );
#382 = VERTEX_POINT( '', #428 );
#383 = CIRCLE( '', #429, 5.50000000000000 );
#384 = FILL_AREA_STYLE_COLOUR( '', #430 );
#385 = FILL_AREA_STYLE_COLOUR( '', #431 );
#386 = VERTEX_POINT( '', #432 );
#387 = CIRCLE( '', #433, 3.28606123086602 );
#388 = FILL_AREA_STYLE_COLOUR( '', #434 );
#389 = VERTEX_POINT( '', #435 );
#390 = CIRCLE( '', #436, 3.31472444122178 );
#391 = FILL_AREA_STYLE_COLOUR( '', #437 );
#392 = FILL_AREA_STYLE_COLOUR( '', #438 );
#393 = FILL_AREA_STYLE_COLOUR( '', #439 );
#394 = FILL_AREA_STYLE_COLOUR( '', #440 );
#395 = COLOUR_RGB( '', 0.643137276172638, 0.678431391716003, 0.698039233684540 );
#396 = CARTESIAN_POINT( '', ( -5.04562711363430, 0.000000000000000, 2.70808075196803E-014 ) );
#397 = AXIS2_PLACEMENT_3D( '', #441, #442, #443 );
#398 = COLOUR_RGB( '', 0.643137276172638, 0.678431391716003, 0.698039233684540 );
#399 = CARTESIAN_POINT( '', ( -5.88723108628689, 0.000000000000000, 4.58368988980271 ) );
#400 = AXIS2_PLACEMENT_3D( '', #444, #445, #446 );
#401 = CARTESIAN_POINT( '', ( -3.98338036568708, 0.000000000000000, 2.96330125868924 ) );
#402 = AXIS2_PLACEMENT_3D( '', #447, #448, #449 );
#403 = COLOUR_RGB( '', 0.643137276172638, 0.678431391716003, 0.698039233684540 );
#404 = CARTESIAN_POINT( '', ( -1.90000000000000, 0.000000000000000, 13.4000000000000 ) );
#405 = AXIS2_PLACEMENT_3D( '', #450, #451, #452 );
#406 = CARTESIAN_POINT( '', ( -1.90000000000000, 0.000000000000000, 16.4000000000000 ) );
#407 = AXIS2_PLACEMENT_3D( '', #453, #454, #455 );
#408 = COLOUR_RGB( '', 0.643137276172638, 0.678431391716003, 0.698039233684540 );
#409 = CARTESIAN_POINT( '', ( -2.50000000000000, 0.000000000000000, 13.4000000000000 ) );
#410 = AXIS2_PLACEMENT_3D( '', #456, #457, #458 );
#411 = CARTESIAN_POINT( '', ( -1.90000000000000, 0.000000000000000, 7.90000000000000 ) );
#412 = AXIS2_PLACEMENT_3D( '', #459, #460, #461 );
#413 = COLOUR_RGB( '', 0.643137276172638, 0.678431391716003, 0.698039233684540 );
#414 = CARTESIAN_POINT( '', ( -1.90000000000000, 0.000000000000000, 7.40000000000000 ) );
#415 = AXIS2_PLACEMENT_3D( '', #462, #463, #464 );
#416 = COLOUR_RGB( '', 0.643137276172638, 0.678431391716003, 0.698039233684540 );
#417 = CARTESIAN_POINT( '', ( -5.82278095559282, 0.000000000000000, 5.28185397039523 ) );
#418 = AXIS2_PLACEMENT_3D( '', #465, #466, #467 );
#419 = CARTESIAN_POINT( '', ( -4.50000000000000, 0.000000000000000, 6.40000000000000 ) );
#420 = AXIS2_PLACEMENT_3D( '', #468, #469, #470 );
#421 = COLOUR_RGB( '', 0.643137276172638, 0.678431391716003, 0.698039233684540 );
#422 = CARTESIAN_POINT( '', ( -4.50000000000000, 0.000000000000000, 16.4000000000000 ) );
#423 = AXIS2_PLACEMENT_3D( '', #471, #472, #473 );
#424 = COLOUR_RGB( '', 0.643137276172638, 0.678431391716003, 0.698039233684540 );
#425 = CARTESIAN_POINT( '', ( -3.17775177969986, 0.000000000000000, 2.28230365485228 ) );
#426 = AXIS2_PLACEMENT_3D( '', #474, #475, #476 );
#427 = COLOUR_RGB( '', 0.643137276172638, 0.678431391716003, 0.698039233684540 );
#428 = CARTESIAN_POINT( '', ( -5.50000000000000, 0.000000000000000, 0.400000000000015 ) );
#429 = AXIS2_PLACEMENT_3D( '', #477, #478, #479 );
#430 = COLOUR_RGB( '', 0.643137276172638, 0.678431391716003, 0.698039233684540 );
#431 = COLOUR_RGB( '', 0.643137276172638, 0.678431391716003, 0.698039233684540 );
#432 = CARTESIAN_POINT( '', ( -3.28606123086602, 0.000000000000000, 1.44808164115471 ) );
#433 = AXIS2_PLACEMENT_3D( '', #480, #481, #482 );
#434 = COLOUR_RGB( '', 0.643137276172638, 0.678431391716003, 0.698039233684540 );
#435 = CARTESIAN_POINT( '', ( -3.31472444122178, 0.000000000000000, 6.40000000000000 ) );
#436 = AXIS2_PLACEMENT_3D( '', #483, #484, #485 );
#437 = COLOUR_RGB( '', 0.643137276172638, 0.678431391716003, 0.698039233684540 );
#438 = COLOUR_RGB( '', 0.643137276172638, 0.678431391716003, 0.698039233684540 );
#439 = COLOUR_RGB( '', 0.643137276172638, 0.678431391716003, 0.698039233684540 );
#440 = COLOUR_RGB( '', 0.643137276172638, 0.678431391716003, 0.698039233684540 );
#441 = CARTESIAN_POINT( '', ( 2.18889781370390E-015, 0.000000000000000, 2.94902990916057E-014 ) );
#442 = DIRECTION( '', ( 4.77540554951924E-016, 0.000000000000000, -1.00000000000000 ) );
#443 = DIRECTION( '', ( -1.00000000000000, 0.000000000000000, -4.77540554951924E-016 ) );
#444 = CARTESIAN_POINT( '', ( 0.000000000000000, 0.000000000000000, 4.58368988980271 ) );
#445 = DIRECTION( '', ( 0.000000000000000, 0.000000000000000, -1.00000000000000 ) );
#446 = DIRECTION( '', ( -1.00000000000000, 0.000000000000000, 0.000000000000000 ) );
#447 = CARTESIAN_POINT( '', ( 0.000000000000000, 0.000000000000000, 2.96330125868924 ) );
#448 = DIRECTION( '', ( 0.000000000000000, 0.000000000000000, -1.00000000000000 ) );
#449 = DIRECTION( '', ( -1.00000000000000, 0.000000000000000, 0.000000000000000 ) );
#450 = CARTESIAN_POINT( '', ( 0.000000000000000, 0.000000000000000, 13.4000000000000 ) );
#451 = DIRECTION( '', ( 0.000000000000000, 0.000000000000000, -1.00000000000000 ) );
#452 = DIRECTION( '', ( -1.00000000000000, 0.000000000000000, 0.000000000000000 ) );
#453 = CARTESIAN_POINT( '', ( 0.000000000000000, 0.000000000000000, 16.4000000000000 ) );
#454 = DIRECTION( '', ( 0.000000000000000, 0.000000000000000, -1.00000000000000 ) );
#455 = DIRECTION( '', ( -1.00000000000000, 0.000000000000000, 0.000000000000000 ) );
#456 = CARTESIAN_POINT( '', ( 0.000000000000000, 0.000000000000000, 13.4000000000000 ) );
#457 = DIRECTION( '', ( 0.000000000000000, 0.000000000000000, -1.00000000000000 ) );
#458 = DIRECTION( '', ( -1.00000000000000, 0.000000000000000, 0.000000000000000 ) );
#459 = CARTESIAN_POINT( '', ( 0.000000000000000, 0.000000000000000, 7.90000000000000 ) );
#460 = DIRECTION( '', ( 0.000000000000000, 0.000000000000000, -1.00000000000000 ) );
#461 = DIRECTION( '', ( -1.00000000000000, 0.000000000000000, 0.000000000000000 ) );
#462 = CARTESIAN_POINT( '', ( 0.000000000000000, 0.000000000000000, 7.40000000000000 ) );
#463 = DIRECTION( '', ( 0.000000000000000, 0.000000000000000, -1.00000000000000 ) );
#464 = DIRECTION( '', ( -1.00000000000000, 0.000000000000000, 0.000000000000000 ) );
#465 = CARTESIAN_POINT( '', ( 0.000000000000000, 0.000000000000000, 5.28185397039523 ) );
#466 = DIRECTION( '', ( 0.000000000000000, 0.000000000000000, -1.00000000000000 ) );
#467 = DIRECTION( '', ( -1.00000000000000, 0.000000000000000, 0.000000000000000 ) );
#468 = CARTESIAN_POINT( '', ( 0.000000000000000, 0.000000000000000, 6.40000000000000 ) );
#469 = DIRECTION( '', ( 0.000000000000000, 0.000000000000000, -1.00000000000000 ) );
#470 = DIRECTION( '', ( -1.00000000000000, 0.000000000000000, 0.000000000000000 ) );
#471 = CARTESIAN_POINT( '', ( 0.000000000000000, 0.000000000000000, 16.4000000000000 ) );
#472 = DIRECTION( '', ( 0.000000000000000, 0.000000000000000, -1.00000000000000 ) );
#473 = DIRECTION( '', ( -1.00000000000000, 0.000000000000000, 0.000000000000000 ) );
#474 = CARTESIAN_POINT( '', ( 0.000000000000000, 0.000000000000000, 2.28230365485228 ) );
#475 = DIRECTION( '', ( 0.000000000000000, 0.000000000000000, -1.00000000000000 ) );
#476 = DIRECTION( '', ( -1.00000000000000, 0.000000000000000, 0.000000000000000 ) );
#477 = CARTESIAN_POINT( '', ( 0.000000000000000, 0.000000000000000, 0.400000000000015 ) );
#478 = DIRECTION( '', ( 0.000000000000000, 0.000000000000000, -1.00000000000000 ) );
#479 = DIRECTION( '', ( -1.00000000000000, 0.000000000000000, 0.000000000000000 ) );
#480 = CARTESIAN_POINT( '', ( 0.000000000000000, 0.000000000000000, 1.44808164115471 ) );
#481 = DIRECTION( '', ( 0.000000000000000, 0.000000000000000, -1.00000000000000 ) );
#482 = DIRECTION( '', ( -1.00000000000000, 0.000000000000000, 0.000000000000000 ) );
#483 = CARTESIAN_POINT( '', ( -2.23938903286118E-015, 0.000000000000000, 6.40000000000000 ) );
#484 = DIRECTION( '', ( 4.77540554951924E-016, 0.000000000000000, -1.00000000000000 ) );
#485 = DIRECTION( '', ( -1.00000000000000, 0.000000000000000, -4.77540554951924E-016 ) );
ENDSEC;
END-ISO-10303-21;
