ISO-10303-21;
HEADER;
FILE_DESCRIPTION( ( 'PIAB ISM' ), '1' );
FILE_NAME( 'd:/FALUTEKNIK/PROJEKT/8234/Gummidel_U/STEP/PIAB_ISM_3150285.stp', 'Unknown', ( 'MaK' ), ( 'FALUTEKNIK AB' ), 'XStep 1.0', 'Solid Edge V15', ' ' );
FILE_SCHEMA( ( 'CONFIG_CONTROL_DESIGN' ) );
ENDSEC;
DATA;
#1 = DESIGN_CONTEXT( '', #27, 'design' );
#2 = APPLICATION_PROTOCOL_DEFINITION( 'INTERNATIONAL STANDARD', 'config_control_design', 1994, #27 );
#3 = PRODUCT_CATEGORY_RELATIONSHIP( 'NONE', 'NONE', #28, #29 );
#4 = DATE_AND_TIME( #30, #31 );
#5 = DATE_TIME_ROLE( 'creation_date' );
#6 = DATE_TIME_ROLE( 'classification_date' );
#7 = PERSON_AND_ORGANIZATION_ROLE( 'creator' );
#8 = PERSON_AND_ORGANIZATION_ROLE( 'design_supplier' );
#9 = PERSON_AND_ORGANIZATION_ROLE( 'classification_officer' );
#10 = PERSON_AND_ORGANIZATION_ROLE( 'design_owner' );
#11 = APPROVAL_PERSON_ORGANIZATION( #32, #33, #34 );
#12 = APPROVAL_DATE_TIME( #4, #33 );
#13 = CC_DESIGN_APPROVAL( #33, ( #35, #36, #37 ) );
#14 = CC_DESIGN_DATE_AND_TIME_ASSIGNMENT( #4, #5, ( #37 ) );
#15 = CC_DESIGN_DATE_AND_TIME_ASSIGNMENT( #4, #6, ( #35 ) );
#16 = CC_DESIGN_PERSON_AND_ORGANIZATION_ASSIGNMENT( #32, #10, ( #38 ) );
#17 = CC_DESIGN_PERSON_AND_ORGANIZATION_ASSIGNMENT( #32, #7, ( #37 ) );
#18 = CC_DESIGN_PERSON_AND_ORGANIZATION_ASSIGNMENT( #32, #7, ( #36 ) );
#19 = CC_DESIGN_PERSON_AND_ORGANIZATION_ASSIGNMENT( #32, #8, ( #36 ) );
#20 = CC_DESIGN_SECURITY_CLASSIFICATION( #35, ( #36 ) );
#21 = CC_DESIGN_PERSON_AND_ORGANIZATION_ASSIGNMENT( #32, #9, ( #35 ) );
#22 = SHAPE_DEFINITION_REPRESENTATION( #39, #40 );
#23 =  ( GEOMETRIC_REPRESENTATION_CONTEXT( 3 )GLOBAL_UNCERTAINTY_ASSIGNED_CONTEXT( ( #43 ) )GLOBAL_UNIT_ASSIGNED_CONTEXT( ( #45, #46, #47 ) )REPRESENTATION_CONTEXT( 'NONE', 'WORKSPACE' ) );
#27 = APPLICATION_CONTEXT( 'CONFIGURATION CONTROLLED 3D DESIGNS OF MECHANICAL PARTS AND ASSEMBLIES' );
#28 = PRODUCT_CATEGORY( 'part', 'NONE' );
#29 = PRODUCT_RELATED_PRODUCT_CATEGORY( 'detail', ' ', ( #38 ) );
#30 = CALENDAR_DATE( 2004, 13, 3 );
#31 = LOCAL_TIME( 15, 45, 36.0000000000000, #49 );
#32 = PERSON_AND_ORGANIZATION( #50, #51 );
#33 = APPROVAL( #52, 'SOLID MODEL' );
#34 = APPROVAL_ROLE( 'APPROVED' );
#35 = SECURITY_CLASSIFICATION( '', '', #53 );
#36 = PRODUCT_DEFINITION_FORMATION_WITH_SPECIFIED_SOURCE( ' ', 'NONE', #38, .NOT_KNOWN. );
#37 = PRODUCT_DEFINITION( 'NONE', 'NONE', #36, #1 );
#38 = PRODUCT( '1', '1', 'PART-1-DESC', ( #54 ) );
#39 = PRODUCT_DEFINITION_SHAPE( 'NONE', 'NONE', #37 );
#40 = ADVANCED_BREP_SHAPE_REPRESENTATION( '1', ( #55, #56 ), #23 );
#43 = UNCERTAINTY_MEASURE_WITH_UNIT( LENGTH_MEASURE( 0.00100000000000000 ), #45, '', '' );
#45 =  ( CONVERSION_BASED_UNIT( 'MILLIMETRE', #59 )LENGTH_UNIT(  )NAMED_UNIT( #62 ) );
#46 =  ( CONVERSION_BASED_UNIT( 'RADIAN', #64 )NAMED_UNIT( #66 )PLANE_ANGLE_UNIT(  ) );
#47 =  ( NAMED_UNIT( #66 )SOLID_ANGLE_UNIT(  )SI_UNIT( $, .STERADIAN. ) );
#49 = COORDINATED_UNIVERSAL_TIME_OFFSET( 1, 0, .AHEAD. );
#50 = PERSON( '', 'UNSPECIFIED', $, $, $, $ );
#51 = ORGANIZATION( 'UNSPECIFIED', 'UNSPECIFIED', 'UNSPECIFIED' );
#52 = APPROVAL_STATUS( 'approved' );
#53 = SECURITY_CLASSIFICATION_LEVEL( 'unclassified' );
#54 = MECHANICAL_CONTEXT( '', #27, 'mechanical' );
#55 = MANIFOLD_SOLID_BREP( '1', #71 );
#56 = AXIS2_PLACEMENT_3D( '', #72, #73, #74 );
#59 = LENGTH_MEASURE_WITH_UNIT( LENGTH_MEASURE( 1.00000000000000 ), #75 );
#62 = DIMENSIONAL_EXPONENTS( 1.00000000000000, 0.000000000000000, 0.000000000000000, 0.000000000000000, 0.000000000000000, 0.000000000000000, 0.000000000000000 );
#64 = PLANE_ANGLE_MEASURE_WITH_UNIT( PLANE_ANGLE_MEASURE( 1.00000000000000 ), #76 );
#66 = DIMENSIONAL_EXPONENTS( 0.000000000000000, 0.000000000000000, 0.000000000000000, 0.000000000000000, 0.000000000000000, 0.000000000000000, 0.000000000000000 );
#71 = CLOSED_SHELL( '', ( #77, #78, #79, #80, #81, #82, #83, #84, #85, #86, #87, #88, #89 ) );
#72 = CARTESIAN_POINT( '', ( 0.000000000000000, 0.000000000000000, 0.000000000000000 ) );
#73 = DIRECTION( '', ( 0.000000000000000, 0.000000000000000, 1.00000000000000 ) );
#74 = DIRECTION( '', ( 1.00000000000000, 0.000000000000000, 0.000000000000000 ) );
#75 =  ( NAMED_UNIT( #62 )LENGTH_UNIT(  )SI_UNIT( .MILLI., .METRE. ) );
#76 =  ( NAMED_UNIT( #66 )PLANE_ANGLE_UNIT(  )SI_UNIT( $, .RADIAN. ) );
#77 = ADVANCED_FACE( '', ( #92, #93 ), #94, .T. );
#78 = ADVANCED_FACE( '', ( #95, #96 ), #97, .T. );
#79 = ADVANCED_FACE( '', ( #98, #99 ), #100, .T. );
#80 = ADVANCED_FACE( '', ( #101, #102 ), #103, .T. );
#81 = ADVANCED_FACE( '', ( #104, #105 ), #106, .F. );
#82 = ADVANCED_FACE( '', ( #107, #108 ), #109, .T. );
#83 = ADVANCED_FACE( '', ( #110, #111 ), #112, .F. );
#84 = ADVANCED_FACE( '', ( #113, #114 ), #115, .T. );
#85 = ADVANCED_FACE( '', ( #116, #117 ), #118, .F. );
#86 = ADVANCED_FACE( '', ( #119, #120 ), #121, .T. );
#87 = ADVANCED_FACE( '', ( #122, #123 ), #124, .T. );
#88 = ADVANCED_FACE( '', ( #125, #126 ), #127, .T. );
#89 = ADVANCED_FACE( '', ( #128, #129 ), #130, .T. );
#92 = FACE_BOUND( '', #131, .T. );
#93 = FACE_OUTER_BOUND( '', #132, .T. );
#94 = CONICAL_SURFACE( '', #133, 1.30000000000000, 0.785398163397455 );
#95 = FACE_OUTER_BOUND( '', #134, .T. );
#96 = FACE_OUTER_BOUND( '', #135, .T. );
#97 = CYLINDRICAL_SURFACE( '', #136, 1.30000000000000 );
#98 = FACE_BOUND( '', #137, .T. );
#99 = FACE_OUTER_BOUND( '', #138, .T. );
#100 = PLANE( '', #139 );
#101 = FACE_OUTER_BOUND( '', #140, .T. );
#102 = FACE_OUTER_BOUND( '', #141, .T. );
#103 = TOROIDAL_SURFACE( '', #142, 0.599999999999996, 0.200000000000000 );
#104 = FACE_OUTER_BOUND( '', #143, .T. );
#105 = FACE_OUTER_BOUND( '', #144, .T. );
#106 = CYLINDRICAL_SURFACE( '', #145, 0.399999999999998 );
#107 = FACE_BOUND( '', #146, .T. );
#108 = FACE_OUTER_BOUND( '', #147, .T. );
#109 = PLANE( '', #148 );
#110 = FACE_OUTER_BOUND( '', #149, .T. );
#111 = FACE_OUTER_BOUND( '', #150, .T. );
#112 = CYLINDRICAL_SURFACE( '', #151, 0.350000000000001 );
#113 = FACE_OUTER_BOUND( '', #152, .T. );
#114 = FACE_BOUND( '', #153, .T. );
#115 = PLANE( '', #154 );
#116 = FACE_OUTER_BOUND( '', #155, .T. );
#117 = FACE_BOUND( '', #156, .T. );
#118 = CONICAL_SURFACE( '', #157, 1.16387326987261, 1.13446401379632 );
#119 = FACE_OUTER_BOUND( '', #158, .T. );
#120 = FACE_OUTER_BOUND( '', #159, .T. );
#121 = TOROIDAL_SURFACE( '', #160, 1.70000000000000, 0.200000000000000 );
#122 = FACE_BOUND( '', #161, .T. );
#123 = FACE_OUTER_BOUND( '', #162, .T. );
#124 = CONICAL_SURFACE( '', #163, 1.90000000000000, 0.862170054667223 );
#125 = FACE_OUTER_BOUND( '', #164, .T. );
#126 = FACE_OUTER_BOUND( '', #165, .T. );
#127 = CYLINDRICAL_SURFACE( '', #166, 1.55000000000000 );
#128 = FACE_BOUND( '', #167, .T. );
#129 = FACE_OUTER_BOUND( '', #168, .T. );
#130 = PLANE( '', #169 );
#131 = EDGE_LOOP( '', ( #170 ) );
#132 = EDGE_LOOP( '', ( #171 ) );
#133 = AXIS2_PLACEMENT_3D( '', #172, #173, #174 );
#134 = EDGE_LOOP( '', ( #175 ) );
#135 = EDGE_LOOP( '', ( #176 ) );
#136 = AXIS2_PLACEMENT_3D( '', #177, #178, #179 );
#137 = EDGE_LOOP( '', ( #180 ) );
#138 = EDGE_LOOP( '', ( #181 ) );
#139 = AXIS2_PLACEMENT_3D( '', #182, #183, #184 );
#140 = EDGE_LOOP( '', ( #185 ) );
#141 = EDGE_LOOP( '', ( #186 ) );
#142 = AXIS2_PLACEMENT_3D( '', #187, #188, #189 );
#143 = EDGE_LOOP( '', ( #190 ) );
#144 = EDGE_LOOP( '', ( #191 ) );
#145 = AXIS2_PLACEMENT_3D( '', #192, #193, #194 );
#146 = EDGE_LOOP( '', ( #195 ) );
#147 = EDGE_LOOP( '', ( #196 ) );
#148 = AXIS2_PLACEMENT_3D( '', #197, #198, #199 );
#149 = EDGE_LOOP( '', ( #200 ) );
#150 = EDGE_LOOP( '', ( #201 ) );
#151 = AXIS2_PLACEMENT_3D( '', #202, #203, #204 );
#152 = EDGE_LOOP( '', ( #205 ) );
#153 = EDGE_LOOP( '', ( #206 ) );
#154 = AXIS2_PLACEMENT_3D( '', #207, #208, #209 );
#155 = EDGE_LOOP( '', ( #210 ) );
#156 = EDGE_LOOP( '', ( #211 ) );
#157 = AXIS2_PLACEMENT_3D( '', #212, #213, #214 );
#158 = EDGE_LOOP( '', ( #215 ) );
#159 = EDGE_LOOP( '', ( #216 ) );
#160 = AXIS2_PLACEMENT_3D( '', #217, #218, #219 );
#161 = EDGE_LOOP( '', ( #220 ) );
#162 = EDGE_LOOP( '', ( #221 ) );
#163 = AXIS2_PLACEMENT_3D( '', #222, #223, #224 );
#164 = EDGE_LOOP( '', ( #225 ) );
#165 = EDGE_LOOP( '', ( #226 ) );
#166 = AXIS2_PLACEMENT_3D( '', #227, #228, #229 );
#167 = EDGE_LOOP( '', ( #230 ) );
#168 = EDGE_LOOP( '', ( #231 ) );
#169 = AXIS2_PLACEMENT_3D( '', #232, #233, #234 );
#170 = ORIENTED_EDGE( '', *, *, #235, .T. );
#171 = ORIENTED_EDGE( '', *, *, #236, .F. );
#172 = CARTESIAN_POINT( '', ( 0.000000000000000, 0.000000000000000, 4.30000000000000 ) );
#173 = DIRECTION( '', ( 0.000000000000000, 0.000000000000000, -1.00000000000000 ) );
#174 = DIRECTION( '', ( -1.00000000000000, 0.000000000000000, 0.000000000000000 ) );
#175 = ORIENTED_EDGE( '', *, *, #236, .T. );
#176 = ORIENTED_EDGE( '', *, *, #237, .F. );
#177 = CARTESIAN_POINT( '', ( 0.000000000000000, 0.000000000000000, 4.80000000000000 ) );
#178 = DIRECTION( '', ( 0.000000000000000, 0.000000000000000, 1.00000000000000 ) );
#179 = DIRECTION( '', ( -1.00000000000000, 0.000000000000000, 0.000000000000000 ) );
#180 = ORIENTED_EDGE( '', *, *, #238, .T. );
#181 = ORIENTED_EDGE( '', *, *, #235, .F. );
#182 = CARTESIAN_POINT( '', ( -0.699999999999996, 0.000000000000000, 4.50000000000000 ) );
#183 = DIRECTION( '', ( 0.000000000000000, 0.000000000000000, 1.00000000000000 ) );
#184 = DIRECTION( '', ( 1.00000000000000, 0.000000000000000, 0.000000000000000 ) );
#185 = ORIENTED_EDGE( '', *, *, #239, .T. );
#186 = ORIENTED_EDGE( '', *, *, #238, .F. );
#187 = CARTESIAN_POINT( '', ( 0.000000000000000, 0.000000000000000, 4.30000000000000 ) );
#188 = DIRECTION( '', ( 0.000000000000000, 0.000000000000000, -1.00000000000000 ) );
#189 = DIRECTION( '', ( -1.00000000000000, 0.000000000000000, 0.000000000000000 ) );
#190 = ORIENTED_EDGE( '', *, *, #240, .T. );
#191 = ORIENTED_EDGE( '', *, *, #239, .F. );
#192 = CARTESIAN_POINT( '', ( 0.000000000000000, 0.000000000000000, 4.80000000000000 ) );
#193 = DIRECTION( '', ( 0.000000000000000, 0.000000000000000, 1.00000000000000 ) );
#194 = DIRECTION( '', ( -1.00000000000000, 0.000000000000000, 0.000000000000000 ) );
#195 = ORIENTED_EDGE( '', *, *, #241, .T. );
#196 = ORIENTED_EDGE( '', *, *, #240, .F. );
#197 = CARTESIAN_POINT( '', ( -0.350000000000001, 0.000000000000000, 0.500000000000001 ) );
#198 = DIRECTION( '', ( 0.000000000000000, 0.000000000000000, 1.00000000000000 ) );
#199 = DIRECTION( '', ( 1.00000000000000, 0.000000000000000, 0.000000000000000 ) );
#200 = ORIENTED_EDGE( '', *, *, #242, .T. );
#201 = ORIENTED_EDGE( '', *, *, #241, .F. );
#202 = CARTESIAN_POINT( '', ( 0.000000000000000, 0.000000000000000, 4.80000000000000 ) );
#203 = DIRECTION( '', ( 0.000000000000000, 0.000000000000000, 1.00000000000000 ) );
#204 = DIRECTION( '', ( -1.00000000000000, 0.000000000000000, 0.000000000000000 ) );
#205 = ORIENTED_EDGE( '', *, *, #243, .T. );
#206 = ORIENTED_EDGE( '', *, *, #242, .F. );
#207 = CARTESIAN_POINT( '', ( -1.16387326987261, 0.000000000000000, 0.249999999999998 ) );
#208 = DIRECTION( '', ( 0.000000000000000, 0.000000000000000, -1.00000000000000 ) );
#209 = DIRECTION( '', ( -1.00000000000000, 0.000000000000000, 0.000000000000000 ) );
#210 = ORIENTED_EDGE( '', *, *, #244, .T. );
#211 = ORIENTED_EDGE( '', *, *, #243, .F. );
#212 = CARTESIAN_POINT( '', ( 0.000000000000000, 0.000000000000000, 0.249999999999998 ) );
#213 = DIRECTION( '', ( 0.000000000000000, 0.000000000000000, -1.00000000000000 ) );
#214 = DIRECTION( '', ( -1.00000000000000, 0.000000000000000, 0.000000000000000 ) );
#215 = ORIENTED_EDGE( '', *, *, #245, .T. );
#216 = ORIENTED_EDGE( '', *, *, #244, .F. );
#217 = CARTESIAN_POINT( '', ( 0.000000000000000, 0.000000000000000, 0.200000000000000 ) );
#218 = DIRECTION( '', ( 0.000000000000000, 0.000000000000000, -1.00000000000000 ) );
#219 = DIRECTION( '', ( -1.00000000000000, 0.000000000000000, 0.000000000000000 ) );
#220 = ORIENTED_EDGE( '', *, *, #246, .T. );
#221 = ORIENTED_EDGE( '', *, *, #245, .F. );
#222 = CARTESIAN_POINT( '', ( 0.000000000000000, 0.000000000000000, 0.200000000000000 ) );
#223 = DIRECTION( '', ( 0.000000000000000, 0.000000000000000, -1.00000000000000 ) );
#224 = DIRECTION( '', ( -1.00000000000000, 0.000000000000000, 0.000000000000000 ) );
#225 = ORIENTED_EDGE( '', *, *, #247, .T. );
#226 = ORIENTED_EDGE( '', *, *, #246, .F. );
#227 = CARTESIAN_POINT( '', ( 0.000000000000000, 0.000000000000000, 4.80000000000000 ) );
#228 = DIRECTION( '', ( 0.000000000000000, 0.000000000000000, 1.00000000000000 ) );
#229 = DIRECTION( '', ( -1.00000000000000, 0.000000000000000, 0.000000000000000 ) );
#230 = ORIENTED_EDGE( '', *, *, #237, .T. );
#231 = ORIENTED_EDGE( '', *, *, #247, .F. );
#232 = CARTESIAN_POINT( '', ( -1.30000000000000, 0.000000000000000, 2.00000000000000 ) );
#233 = DIRECTION( '', ( 0.000000000000000, 0.000000000000000, 1.00000000000000 ) );
#234 = DIRECTION( '', ( 1.00000000000000, 0.000000000000000, 0.000000000000000 ) );
#235 = EDGE_CURVE( '', #248, #248, #249, .T. );
#236 = EDGE_CURVE( '', #250, #250, #251, .T. );
#237 = EDGE_CURVE( '', #252, #252, #253, .T. );
#238 = EDGE_CURVE( '', #254, #254, #255, .T. );
#239 = EDGE_CURVE( '', #256, #256, #257, .T. );
#240 = EDGE_CURVE( '', #258, #258, #259, .T. );
#241 = EDGE_CURVE( '', #260, #260, #261, .T. );
#242 = EDGE_CURVE( '', #262, #262, #263, .T. );
#243 = EDGE_CURVE( '', #264, #264, #265, .T. );
#244 = EDGE_CURVE( '', #266, #266, #267, .T. );
#245 = EDGE_CURVE( '', #268, #268, #269, .T. );
#246 = EDGE_CURVE( '', #270, #270, #271, .T. );
#247 = EDGE_CURVE( '', #272, #272, #273, .T. );
#248 = VERTEX_POINT( '', #274 );
#249 = CIRCLE( '', #275, 1.10000000000001 );
#250 = VERTEX_POINT( '', #276 );
#251 = CIRCLE( '', #277, 1.30000000000000 );
#252 = VERTEX_POINT( '', #278 );
#253 = CIRCLE( '', #279, 1.30000000000000 );
#254 = VERTEX_POINT( '', #280 );
#255 = CIRCLE( '', #281, 0.599999999999995 );
#256 = VERTEX_POINT( '', #282 );
#257 = CIRCLE( '', #283, 0.399999999999996 );
#258 = VERTEX_POINT( '', #284 );
#259 = CIRCLE( '', #285, 0.399999999999999 );
#260 = VERTEX_POINT( '', #286 );
#261 = CIRCLE( '', #287, 0.350000000000001 );
#262 = VERTEX_POINT( '', #288 );
#263 = CIRCLE( '', #289, 0.350000000000001 );
#264 = VERTEX_POINT( '', #290 );
#265 = CIRCLE( '', #291, 1.16387326987261 );
#266 = VERTEX_POINT( '', #292 );
#267 = CIRCLE( '', #293, 1.70000000000000 );
#268 = VERTEX_POINT( '', #294 );
#269 = CIRCLE( '', #295, 1.90000000000000 );
#270 = VERTEX_POINT( '', #296 );
#271 = CIRCLE( '', #297, 1.55000000000000 );
#272 = VERTEX_POINT( '', #298 );
#273 = CIRCLE( '', #299, 1.55000000000000 );
#274 = CARTESIAN_POINT( '', ( -1.10000000000001, 0.000000000000000, 4.49999999999999 ) );
#275 = AXIS2_PLACEMENT_3D( '', #300, #301, #302 );
#276 = CARTESIAN_POINT( '', ( -1.30000000000000, 0.000000000000000, 4.30000000000000 ) );
#277 = AXIS2_PLACEMENT_3D( '', #303, #304, #305 );
#278 = CARTESIAN_POINT( '', ( -1.30000000000000, 0.000000000000000, 2.00000000000000 ) );
#279 = AXIS2_PLACEMENT_3D( '', #306, #307, #308 );
#280 = CARTESIAN_POINT( '', ( -0.599999999999995, 0.000000000000000, 4.50000000000000 ) );
#281 = AXIS2_PLACEMENT_3D( '', #309, #310, #311 );
#282 = CARTESIAN_POINT( '', ( -0.399999999999996, 0.000000000000000, 4.30000000000000 ) );
#283 = AXIS2_PLACEMENT_3D( '', #312, #313, #314 );
#284 = CARTESIAN_POINT( '', ( -0.399999999999999, 0.000000000000000, 0.500000000000001 ) );
#285 = AXIS2_PLACEMENT_3D( '', #315, #316, #317 );
#286 = CARTESIAN_POINT( '', ( -0.350000000000001, 0.000000000000000, 0.500000000000001 ) );
#287 = AXIS2_PLACEMENT_3D( '', #318, #319, #320 );
#288 = CARTESIAN_POINT( '', ( -0.350000000000001, 0.000000000000000, 0.249999999999998 ) );
#289 = AXIS2_PLACEMENT_3D( '', #321, #322, #323 );
#290 = CARTESIAN_POINT( '', ( -1.16387326987261, 0.000000000000000, 0.249999999999998 ) );
#291 = AXIS2_PLACEMENT_3D( '', #324, #325, #326 );
#292 = CARTESIAN_POINT( '', ( -1.70000000000000, 0.000000000000000, -8.67361737988404E-016 ) );
#293 = AXIS2_PLACEMENT_3D( '', #327, #328, #329 );
#294 = CARTESIAN_POINT( '', ( -1.90000000000000, 0.000000000000000, 0.200000000000000 ) );
#295 = AXIS2_PLACEMENT_3D( '', #330, #331, #332 );
#296 = CARTESIAN_POINT( '', ( -1.55000000000000, 0.000000000000000, 0.499999999999998 ) );
#297 = AXIS2_PLACEMENT_3D( '', #333, #334, #335 );
#298 = CARTESIAN_POINT( '', ( -1.55000000000000, 0.000000000000000, 2.00000000000000 ) );
#299 = AXIS2_PLACEMENT_3D( '', #336, #337, #338 );
#300 = CARTESIAN_POINT( '', ( 0.000000000000000, 0.000000000000000, 4.49999999999999 ) );
#301 = DIRECTION( '', ( 0.000000000000000, 0.000000000000000, -1.00000000000000 ) );
#302 = DIRECTION( '', ( -1.00000000000000, 0.000000000000000, 0.000000000000000 ) );
#303 = CARTESIAN_POINT( '', ( 0.000000000000000, 0.000000000000000, 4.30000000000000 ) );
#304 = DIRECTION( '', ( 0.000000000000000, 0.000000000000000, -1.00000000000000 ) );
#305 = DIRECTION( '', ( -1.00000000000000, 0.000000000000000, 0.000000000000000 ) );
#306 = CARTESIAN_POINT( '', ( 0.000000000000000, 0.000000000000000, 2.00000000000000 ) );
#307 = DIRECTION( '', ( 0.000000000000000, 0.000000000000000, -1.00000000000000 ) );
#308 = DIRECTION( '', ( -1.00000000000000, 0.000000000000000, 0.000000000000000 ) );
#309 = CARTESIAN_POINT( '', ( 0.000000000000000, 0.000000000000000, 4.50000000000000 ) );
#310 = DIRECTION( '', ( 0.000000000000000, 0.000000000000000, -1.00000000000000 ) );
#311 = DIRECTION( '', ( -1.00000000000000, 0.000000000000000, 0.000000000000000 ) );
#312 = CARTESIAN_POINT( '', ( 0.000000000000000, 0.000000000000000, 4.30000000000000 ) );
#313 = DIRECTION( '', ( 0.000000000000000, 0.000000000000000, -1.00000000000000 ) );
#314 = DIRECTION( '', ( -1.00000000000000, 0.000000000000000, 0.000000000000000 ) );
#315 = CARTESIAN_POINT( '', ( 0.000000000000000, 0.000000000000000, 0.500000000000001 ) );
#316 = DIRECTION( '', ( 0.000000000000000, 0.000000000000000, -1.00000000000000 ) );
#317 = DIRECTION( '', ( -1.00000000000000, 0.000000000000000, 0.000000000000000 ) );
#318 = CARTESIAN_POINT( '', ( 0.000000000000000, 0.000000000000000, 0.500000000000001 ) );
#319 = DIRECTION( '', ( 0.000000000000000, 0.000000000000000, -1.00000000000000 ) );
#320 = DIRECTION( '', ( -1.00000000000000, 0.000000000000000, 0.000000000000000 ) );
#321 = CARTESIAN_POINT( '', ( 0.000000000000000, 0.000000000000000, 0.249999999999998 ) );
#322 = DIRECTION( '', ( 0.000000000000000, 0.000000000000000, -1.00000000000000 ) );
#323 = DIRECTION( '', ( -1.00000000000000, 0.000000000000000, 0.000000000000000 ) );
#324 = CARTESIAN_POINT( '', ( 0.000000000000000, 0.000000000000000, 0.249999999999998 ) );
#325 = DIRECTION( '', ( 0.000000000000000, 0.000000000000000, -1.00000000000000 ) );
#326 = DIRECTION( '', ( -1.00000000000000, 0.000000000000000, 0.000000000000000 ) );
#327 = CARTESIAN_POINT( '', ( 0.000000000000000, 0.000000000000000, -8.67361737988404E-016 ) );
#328 = DIRECTION( '', ( 0.000000000000000, 0.000000000000000, -1.00000000000000 ) );
#329 = DIRECTION( '', ( -1.00000000000000, 0.000000000000000, 0.000000000000000 ) );
#330 = CARTESIAN_POINT( '', ( 0.000000000000000, 0.000000000000000, 0.200000000000000 ) );
#331 = DIRECTION( '', ( 0.000000000000000, 0.000000000000000, -1.00000000000000 ) );
#332 = DIRECTION( '', ( -1.00000000000000, 0.000000000000000, 0.000000000000000 ) );
#333 = CARTESIAN_POINT( '', ( 0.000000000000000, 0.000000000000000, 0.499999999999998 ) );
#334 = DIRECTION( '', ( 0.000000000000000, 0.000000000000000, -1.00000000000000 ) );
#335 = DIRECTION( '', ( -1.00000000000000, 0.000000000000000, 0.000000000000000 ) );
#336 = CARTESIAN_POINT( '', ( 0.000000000000000, 0.000000000000000, 2.00000000000000 ) );
#337 = DIRECTION( '', ( 0.000000000000000, 0.000000000000000, -1.00000000000000 ) );
#338 = DIRECTION( '', ( -1.00000000000000, 0.000000000000000, 0.000000000000000 ) );
ENDSEC;
END-ISO-10303-21;
