ISO-10303-21;
HEADER;
FILE_DESCRIPTION((''),'2;1');
FILE_NAME('','2001-09-27T14:18:13+00:00',('Andreas Norl\X\E9n'),(
   'PIAB AB'),'','SolidEdge','');
FILE_SCHEMA(('CONFIG_CONTROL_DESIGN'));
ENDSEC;
/* ISO 10303-21 file written by STEP Caselib, ProSTEP GmbH, Germany */
DATA;
#1=ADVANCED_BREP_SHAPE_REPRESENTATION('',(#91,#413),#417);
#2=APPLICATION_CONTEXT(
   'CONFIGURATION CONTROLLED 3D DESIGNS OF MECHANICAL PARTS AND 
ASSEMBLIES');
#3=APPLICATION_PROTOCOL_DEFINITION('INTERNATIONAL STANDARD',
   'config_control_design',1994,#2);
#4=MECHANICAL_CONTEXT('MECHANICAL_CONTEXT_NAME',#2,'mechanical');
#5=PRODUCT('','','PRODUCT_DESCRIPTION',(#4));
#6=PRODUCT_RELATED_PRODUCT_CATEGORY('detail',
   'PRODUCT_RELATED_PRODUCT_CATEGORY_DESCRIPTION',(#5));
#7=PERSON_AND_ORGANIZATION_ROLE('design_owner');
#8=CC_DESIGN_PERSON_AND_ORGANIZATION_ASSIGNMENT(#11,#7,(#5));
#9=PERSON('ID_1','PERSON_LAST_NAME','PERSON_FIRST_NAME',$,$,$);
#10=ORGANIZATION('ORGANIZATION_ID','ORGANIZATION_NAME',
   'ORGANIZATION_DESCRIPTION');
#11=PERSON_AND_ORGANIZATION(#9,#10);
#12=PRODUCT_DEFINITION_FORMATION_WITH_SPECIFIED_SOURCE(
   'PRODUCT_DEFINITION_FORMATION_ID',
   'PRODUCT_DEFINITION_FORMATION_DESCRIPTION',#5,.NOT_KNOWN.);
#13=PERSON_AND_ORGANIZATION_ROLE('creator');
#14=CC_DESIGN_PERSON_AND_ORGANIZATION_ASSIGNMENT(#17,#13,(#12));
#15=PERSON('ID_2','PERSON_LAST_NAME','PERSON_FIRST_NAME',$,$,$);
#16=ORGANIZATION('ORGANIZATION_ID','ORGANIZATION_NAME',
   'ORGANIZATION_DESCRIPTION');
#17=PERSON_AND_ORGANIZATION(#15,#16);
#18=PERSON_AND_ORGANIZATION_ROLE('part_supplier');
#19=CC_DESIGN_PERSON_AND_ORGANIZATION_ASSIGNMENT(#22,#18,(#12));
#20=PERSON('ID_3','PERSON_LAST_NAME','PERSON_FIRST_NAME',$,$,$);
#21=ORGANIZATION('ORGANIZATION_ID','ORGANIZATION_NAME',
   'ORGANIZATION_DESCRIPTION');
#22=PERSON_AND_ORGANIZATION(#20,#21);
#23=APPROVAL_STATUS('approved');
#24=APPROVAL(#23,'APPROVAL_LEVEL');
#25=CC_DESIGN_APPROVAL(#24,(#12));
#26=APPROVAL_ROLE('APPROVAL_ROLE');
#27=APPROVAL_PERSON_ORGANIZATION(#30,#24,#26);
#28=PERSON('ID_4','PERSON_LAST_NAME','PERSON_FIRST_NAME',$,$,$);
#29=ORGANIZATION('ORGANIZATION_ID','ORGANIZATION_NAME',
   'ORGANIZATION_DESCRIPTION');
#30=PERSON_AND_ORGANIZATION(#28,#29);
#31=APPROVAL_DATE_TIME(#35,#24);
#32=CALENDAR_DATE(1997,1,1);
#33=COORDINATED_UNIVERSAL_TIME_OFFSET(0,0,.AHEAD.);
#34=LOCAL_TIME(0,0,0.0E+000,#33);
#35=DATE_AND_TIME(#32,#34);
#36=SECURITY_CLASSIFICATION_LEVEL('classified');
#37=SECURITY_CLASSIFICATION('SECURITY_CLASSIFICATION_NAME',
   'SECURITY_CLASSIFICATION_PURPOSE',#36);
#38=CC_DESIGN_SECURITY_CLASSIFICATION(#37,(#12));
#39=APPROVAL_STATUS('approved');
#40=APPROVAL(#39,'APPROVAL_LEVEL');
#41=CC_DESIGN_APPROVAL(#40,(#37));
#42=APPROVAL_ROLE('APPROVAL_ROLE');
#43=APPROVAL_PERSON_ORGANIZATION(#46,#40,#42);
#44=PERSON('ID_5','PERSON_LAST_NAME','PERSON_FIRST_NAME',$,$,$);
#45=ORGANIZATION('ORGANIZATION_ID','ORGANIZATION_NAME',
   'ORGANIZATION_DESCRIPTION');
#46=PERSON_AND_ORGANIZATION(#44,#45);
#47=APPROVAL_DATE_TIME(#51,#40);
#48=CALENDAR_DATE(1997,1,1);
#49=COORDINATED_UNIVERSAL_TIME_OFFSET(0,0,.AHEAD.);
#50=LOCAL_TIME(0,0,0.0E+000,#49);
#51=DATE_AND_TIME(#48,#50);
#52=PERSON_AND_ORGANIZATION_ROLE('classification_officer');
#53=CC_DESIGN_PERSON_AND_ORGANIZATION_ASSIGNMENT(#56,#52,(#37));
#54=PERSON('ID_6','PERSON_LAST_NAME','PERSON_FIRST_NAME',$,$,$);
#55=ORGANIZATION('ORGANIZATION_ID','ORGANIZATION_NAME',
   'ORGANIZATION_DESCRIPTION');
#56=PERSON_AND_ORGANIZATION(#54,#55);
#57=DATE_TIME_ROLE('classification_date');
#58=CC_DESIGN_DATE_AND_TIME_ASSIGNMENT(#62,#57,(#37));
#59=CALENDAR_DATE(1997,1,1);
#60=COORDINATED_UNIVERSAL_TIME_OFFSET(0,0,.AHEAD.);
#61=LOCAL_TIME(0,0,0.0E+000,#60);
#62=DATE_AND_TIME(#59,#61);
#63=DESIGN_CONTEXT('DESIGN_CONTEXT_NAME',#2,'design');
#64=PRODUCT_DEFINITION('PRODUCT_DEFINITION_ID',
   'PRODUCT_DEFINITION_DESCRIPTION',#12,#63);
#65=PERSON_AND_ORGANIZATION_ROLE('creator');
#66=CC_DESIGN_PERSON_AND_ORGANIZATION_ASSIGNMENT(#69,#65,(#64));
#67=PERSON('ID_7','PERSON_LAST_NAME','PERSON_FIRST_NAME',$,$,$);
#68=ORGANIZATION('ORGANIZATION_ID','ORGANIZATION_NAME',
   'ORGANIZATION_DESCRIPTION');
#69=PERSON_AND_ORGANIZATION(#67,#68);
#70=DATE_TIME_ROLE('creation_date');
#71=CC_DESIGN_DATE_AND_TIME_ASSIGNMENT(#75,#70,(#64));
#72=CALENDAR_DATE(1997,1,1);
#73=COORDINATED_UNIVERSAL_TIME_OFFSET(0,0,.AHEAD.);
#74=LOCAL_TIME(0,0,0.0E+000,#73);
#75=DATE_AND_TIME(#72,#74);
#76=APPROVAL_STATUS('approved');
#77=APPROVAL(#76,'APPROVAL_LEVEL');
#78=CC_DESIGN_APPROVAL(#77,(#64));
#79=APPROVAL_ROLE('APPROVAL_ROLE');
#80=APPROVAL_PERSON_ORGANIZATION(#83,#77,#79);
#81=PERSON('ID_8','PERSON_LAST_NAME','PERSON_FIRST_NAME',$,$,$);
#82=ORGANIZATION('ORGANIZATION_ID','ORGANIZATION_NAME',
   'ORGANIZATION_DESCRIPTION');
#83=PERSON_AND_ORGANIZATION(#81,#82);
#84=APPROVAL_DATE_TIME(#88,#77);
#85=CALENDAR_DATE(1997,1,1);
#86=COORDINATED_UNIVERSAL_TIME_OFFSET(0,0,.AHEAD.);
#87=LOCAL_TIME(0,0,0.0E+000,#86);
#88=DATE_AND_TIME(#85,#87);
#89=PRODUCT_DEFINITION_SHAPE('PRODUCT_DEFINITION_SHAPE_NAME',
   'PRODUCT_DEFINITION_SHAPE_DESCRIPTION',#64);
#90=SHAPE_DEFINITION_REPRESENTATION(#89,#1);
#91=MANIFOLD_SOLID_BREP('',#92);
#92=CLOSED_SHELL('',(#93,#94,#95,#96,#97,#98,#99,#100,#101,#102,#103,
   #104,#105,#106,#107,#108));
#93=ADVANCED_FACE('',(#109,#110),#131,.F.);
#94=ADVANCED_FACE('',(#136,#137),#150,.T.);
#95=ADVANCED_FACE('',(#155,#156),#169,.T.);
#96=ADVANCED_FACE('',(#174,#175),#188,.F.);
#97=ADVANCED_FACE('',(#193,#194),#207,.T.);
#98=ADVANCED_FACE('',(#212,#213),#226,.F.);
#99=ADVANCED_FACE('',(#231,#232),#245,.T.);
#100=ADVANCED_FACE('',(#250,#251),#264,.T.);
#101=ADVANCED_FACE('',(#269,#270),#283,.F.);
#102=ADVANCED_FACE('',(#288,#289),#302,.F.);
#103=ADVANCED_FACE('',(#307,#308),#321,.F.);
#104=ADVANCED_FACE('',(#326,#327),#340,.F.);
#105=ADVANCED_FACE('',(#345,#346),#359,.T.);
#106=ADVANCED_FACE('',(#364,#365),#378,.T.);
#107=ADVANCED_FACE('',(#383,#384),#397,.T.);
#108=ADVANCED_FACE('',(#402,#403),#408,.T.);
#109=FACE_OUTER_BOUND('',#111,.T.);
#110=FACE_BOUND('',#112,.T.);
#111=EDGE_LOOP('',(#113));
#112=EDGE_LOOP('',(#122));
#113=ORIENTED_EDGE('',*,*,#114,.F.);
#114=EDGE_CURVE('',#120,#120,#115,.T.);
#115=CIRCLE('',#116,3.06217170213521E+000);
#116=AXIS2_PLACEMENT_3D('',#117,#118,#119);
#117=CARTESIAN_POINT('',(0.0E+000,0.0E+000,1.0499979E+001));
#118=DIRECTION('',(0.0E+000,0.0E+000,1.0E+000));
#119=DIRECTION('',(1.0E+000,0.0E+000,0.0E+000));
#120=VERTEX_POINT('',#121);
#121=CARTESIAN_POINT('',(3.06217170213521E+000,0.0E+000,1.0499979E+001))
   ;
#122=ORIENTED_EDGE('',*,*,#123,.T.);
#123=EDGE_CURVE('',#129,#129,#124,.T.);
#124=CIRCLE('',#125,4.24999150000001E+000);
#125=AXIS2_PLACEMENT_3D('',#126,#127,#128);
#126=CARTESIAN_POINT('',(0.0E+000,0.0E+000,1.0499979E+001));
#127=DIRECTION('',(0.0E+000,0.0E+000,1.0E+000));
#128=DIRECTION('',(1.0E+000,0.0E+000,0.0E+000));
#129=VERTEX_POINT('',#130);
#130=CARTESIAN_POINT('',(4.24999150000001E+000,0.0E+000,1.0499979E+001))
   ;
#131=PLANE('',#132);
#132=AXIS2_PLACEMENT_3D('',#133,#134,#135);
#133=CARTESIAN_POINT('',(3.06217170213521E+000,0.0E+000,1.0499979E+001))
   ;
#134=DIRECTION('',(0.0E+000,0.0E+000,-1.0E+000));
#135=DIRECTION('',(-1.0E+000,0.0E+000,0.0E+000));
#136=FACE_OUTER_BOUND('',#138,.T.);
#137=FACE_BOUND('',#139,.T.);
#138=EDGE_LOOP('',(#140));
#139=EDGE_LOOP('',(#149));
#140=ORIENTED_EDGE('',*,*,#141,.F.);
#141=EDGE_CURVE('',#147,#147,#142,.T.);
#142=CIRCLE('',#143,4.04144380142364E+000);
#143=AXIS2_PLACEMENT_3D('',#144,#145,#146);
#144=CARTESIAN_POINT('',(0.0E+000,0.0E+000,1.0999978E+001));
#145=DIRECTION('',(0.0E+000,0.0E+000,1.0E+000));
#146=DIRECTION('',(1.0E+000,0.0E+000,0.0E+000));
#147=VERTEX_POINT('',#148);
#148=CARTESIAN_POINT('',(4.04144380142364E+000,0.0E+000,1.0999978E+001))
   ;
#149=ORIENTED_EDGE('',*,*,#114,.T.);
#150=TOROIDAL_SURFACE('',#151,3.03108285106775E+000,
   1.27024477510744E+000);
#151=AXIS2_PLACEMENT_3D('',#152,#153,#154);
#152=CARTESIAN_POINT('',(0.0E+000,0.0E+000,1.17698432730729E+001));
#153=DIRECTION('',(0.0E+000,0.0E+000,1.0E+000));
#154=DIRECTION('',(1.0E+000,0.0E+000,0.0E+000));
#155=FACE_OUTER_BOUND('',#157,.T.);
#156=FACE_BOUND('',#158,.T.);
#157=EDGE_LOOP('',(#159));
#158=EDGE_LOOP('',(#168));
#159=ORIENTED_EDGE('',*,*,#160,.F.);
#160=EDGE_CURVE('',#166,#166,#161,.T.);
#161=CIRCLE('',#162,4.04144380142364E+000);
#162=AXIS2_PLACEMENT_3D('',#163,#164,#165);
#163=CARTESIAN_POINT('',(0.0E+000,0.0E+000,1.499997E+001));
#164=DIRECTION('',(0.0E+000,0.0E+000,1.0E+000));
#165=DIRECTION('',(1.0E+000,0.0E+000,0.0E+000));
#166=VERTEX_POINT('',#167);
#167=CARTESIAN_POINT('',(4.04144380142364E+000,0.0E+000,1.499997E+001));
#168=ORIENTED_EDGE('',*,*,#141,.T.);
#169=CYLINDRICAL_SURFACE('',#170,4.04144380142364E+000);
#170=AXIS2_PLACEMENT_3D('',#171,#172,#173);
#171=CARTESIAN_POINT('',(0.0E+000,0.0E+000,5.4E+001));
#172=DIRECTION('',(0.0E+000,0.0E+000,1.0E+000));
#173=DIRECTION('',(1.0E+000,0.0E+000,0.0E+000));
#174=FACE_OUTER_BOUND('',#176,.T.);
#175=FACE_BOUND('',#177,.T.);
#176=EDGE_LOOP('',(#178));
#177=EDGE_LOOP('',(#187));
#178=ORIENTED_EDGE('',*,*,#179,.F.);
#179=EDGE_CURVE('',#185,#185,#180,.T.);
#180=CIRCLE('',#181,3.49999300000001E+000);
#181=AXIS2_PLACEMENT_3D('',#182,#183,#184);
#182=CARTESIAN_POINT('',(0.0E+000,0.0E+000,1.499997E+001));
#183=DIRECTION('',(0.0E+000,0.0E+000,1.0E+000));
#184=DIRECTION('',(1.0E+000,0.0E+000,0.0E+000));
#185=VERTEX_POINT('',#186);
#186=CARTESIAN_POINT('',(3.49999300000001E+000,0.0E+000,1.499997E+001));
#187=ORIENTED_EDGE('',*,*,#160,.T.);
#188=PLANE('',#189);
#189=AXIS2_PLACEMENT_3D('',#190,#191,#192);
#190=CARTESIAN_POINT('',(4.04144380142364E+000,0.0E+000,1.499997E+001));
#191=DIRECTION('',(0.0E+000,0.0E+000,-1.0E+000));
#192=DIRECTION('',(-1.0E+000,0.0E+000,0.0E+000));
#193=FACE_OUTER_BOUND('',#195,.T.);
#194=FACE_BOUND('',#196,.T.);
#195=EDGE_LOOP('',(#197));
#196=EDGE_LOOP('',(#206));
#197=ORIENTED_EDGE('',*,*,#198,.F.);
#198=EDGE_CURVE('',#204,#204,#199,.T.);
#199=CIRCLE('',#200,3.49999300000001E+000);
#200=AXIS2_PLACEMENT_3D('',#201,#202,#203);
#201=CARTESIAN_POINT('',(0.0E+000,0.0E+000,1.5499969E+001));
#202=DIRECTION('',(0.0E+000,0.0E+000,1.0E+000));
#203=DIRECTION('',(1.0E+000,0.0E+000,0.0E+000));
#204=VERTEX_POINT('',#205);
#205=CARTESIAN_POINT('',(3.49999300000001E+000,0.0E+000,1.5499969E+001))
   ;
#206=ORIENTED_EDGE('',*,*,#179,.T.);
#207=CYLINDRICAL_SURFACE('',#208,3.49999300000001E+000);
#208=AXIS2_PLACEMENT_3D('',#209,#210,#211);
#209=CARTESIAN_POINT('',(0.0E+000,0.0E+000,5.4E+001));
#210=DIRECTION('',(0.0E+000,0.0E+000,1.0E+000));
#211=DIRECTION('',(1.0E+000,0.0E+000,0.0E+000));
#212=FACE_OUTER_BOUND('',#214,.T.);
#213=FACE_BOUND('',#215,.T.);
#214=EDGE_LOOP('',(#216));
#215=EDGE_LOOP('',(#225));
#216=ORIENTED_EDGE('',*,*,#217,.F.);
#217=EDGE_CURVE('',#223,#223,#218,.T.);
#218=CIRCLE('',#219,2.49999500000001E+000);
#219=AXIS2_PLACEMENT_3D('',#220,#221,#222);
#220=CARTESIAN_POINT('',(0.0E+000,0.0E+000,1.5499969E+001));
#221=DIRECTION('',(0.0E+000,0.0E+000,1.0E+000));
#222=DIRECTION('',(1.0E+000,0.0E+000,0.0E+000));
#223=VERTEX_POINT('',#224);
#224=CARTESIAN_POINT('',(2.49999500000001E+000,0.0E+000,1.5499969E+001))
   ;
#225=ORIENTED_EDGE('',*,*,#198,.T.);
#226=PLANE('',#227);
#227=AXIS2_PLACEMENT_3D('',#228,#229,#230);
#228=CARTESIAN_POINT('',(2.49999500000001E+000,0.0E+000,1.5499969E+001))
   ;
#229=DIRECTION('',(0.0E+000,0.0E+000,-1.0E+000));
#230=DIRECTION('',(-1.0E+000,0.0E+000,0.0E+000));
#231=FACE_OUTER_BOUND('',#233,.T.);
#232=FACE_BOUND('',#234,.T.);
#233=EDGE_LOOP('',(#235));
#234=EDGE_LOOP('',(#244));
#235=ORIENTED_EDGE('',*,*,#236,.F.);
#236=EDGE_CURVE('',#242,#242,#237,.T.);
#237=CIRCLE('',#238,2.49999500000001E+000);
#238=AXIS2_PLACEMENT_3D('',#239,#240,#241);
#239=CARTESIAN_POINT('',(0.0E+000,0.0E+000,1.8499963E+001));
#240=DIRECTION('',(0.0E+000,0.0E+000,1.0E+000));
#241=DIRECTION('',(1.0E+000,0.0E+000,0.0E+000));
#242=VERTEX_POINT('',#243);
#243=CARTESIAN_POINT('',(2.49999500000001E+000,0.0E+000,1.8499963E+001))
   ;
#244=ORIENTED_EDGE('',*,*,#217,.T.);
#245=CYLINDRICAL_SURFACE('',#246,2.49999500000001E+000);
#246=AXIS2_PLACEMENT_3D('',#247,#248,#249);
#247=CARTESIAN_POINT('',(0.0E+000,0.0E+000,5.4E+001));
#248=DIRECTION('',(0.0E+000,0.0E+000,1.0E+000));
#249=DIRECTION('',(1.0E+000,0.0E+000,0.0E+000));
#250=FACE_OUTER_BOUND('',#252,.T.);
#251=FACE_BOUND('',#253,.T.);
#252=EDGE_LOOP('',(#254));
#253=EDGE_LOOP('',(#263));
#254=ORIENTED_EDGE('',*,*,#255,.F.);
#255=EDGE_CURVE('',#261,#261,#256,.T.);
#256=CIRCLE('',#257,1.99999600000001E+000);
#257=AXIS2_PLACEMENT_3D('',#258,#259,#260);
#258=CARTESIAN_POINT('',(0.0E+000,0.0E+000,1.8999962E+001));
#259=DIRECTION('',(0.0E+000,0.0E+000,1.0E+000));
#260=DIRECTION('',(1.0E+000,0.0E+000,0.0E+000));
#261=VERTEX_POINT('',#262);
#262=CARTESIAN_POINT('',(1.99999600000001E+000,0.0E+000,1.8999962E+001))
   ;
#263=ORIENTED_EDGE('',*,*,#236,.T.);
#264=CONICAL_SURFACE('',#265,2.49999500000001E+000,7.85398163397446E-001
   );
#265=AXIS2_PLACEMENT_3D('',#266,#267,#268);
#266=CARTESIAN_POINT('',(0.0E+000,0.0E+000,1.8499963E+001));
#267=DIRECTION('',(0.0E+000,0.0E+000,-1.0E+000));
#268=DIRECTION('',(-1.0E+000,0.0E+000,0.0E+000));
#269=FACE_OUTER_BOUND('',#271,.T.);
#270=FACE_BOUND('',#272,.T.);
#271=EDGE_LOOP('',(#273));
#272=EDGE_LOOP('',(#282));
#273=ORIENTED_EDGE('',*,*,#274,.F.);
#274=EDGE_CURVE('',#280,#280,#275,.T.);
#275=CIRCLE('',#276,1.54999690000001E+000);
#276=AXIS2_PLACEMENT_3D('',#277,#278,#279);
#277=CARTESIAN_POINT('',(0.0E+000,0.0E+000,1.8999962E+001));
#278=DIRECTION('',(0.0E+000,0.0E+000,1.0E+000));
#279=DIRECTION('',(1.0E+000,0.0E+000,0.0E+000));
#280=VERTEX_POINT('',#281);
#281=CARTESIAN_POINT('',(1.54999690000001E+000,0.0E+000,1.8999962E+001))
   ;
#282=ORIENTED_EDGE('',*,*,#255,.T.);
#283=PLANE('',#284);
#284=AXIS2_PLACEMENT_3D('',#285,#286,#287);
#285=CARTESIAN_POINT('',(1.99999600000001E+000,0.0E+000,1.8999962E+001))
   ;
#286=DIRECTION('',(0.0E+000,0.0E+000,-1.0E+000));
#287=DIRECTION('',(-1.0E+000,0.0E+000,0.0E+000));
#288=FACE_OUTER_BOUND('',#290,.T.);
#289=FACE_BOUND('',#291,.T.);
#290=EDGE_LOOP('',(#292));
#291=EDGE_LOOP('',(#301));
#292=ORIENTED_EDGE('',*,*,#293,.F.);
#293=EDGE_CURVE('',#299,#299,#294,.T.);
#294=CIRCLE('',#295,1.34999730000001E+000);
#295=AXIS2_PLACEMENT_3D('',#296,#297,#298);
#296=CARTESIAN_POINT('',(0.0E+000,0.0E+000,1.87999624E+001));
#297=DIRECTION('',(0.0E+000,0.0E+000,1.0E+000));
#298=DIRECTION('',(1.0E+000,0.0E+000,0.0E+000));
#299=VERTEX_POINT('',#300);
#300=CARTESIAN_POINT('',(1.34999730000001E+000,0.0E+000,1.87999624E+001)
   );
#301=ORIENTED_EDGE('',*,*,#274,.T.);
#302=CONICAL_SURFACE('',#303,1.54999690000001E+000,7.85398163397446E-001
   );
#303=AXIS2_PLACEMENT_3D('',#304,#305,#306);
#304=CARTESIAN_POINT('',(0.0E+000,0.0E+000,1.8999962E+001));
#305=DIRECTION('',(0.0E+000,0.0E+000,1.0E+000));
#306=DIRECTION('',(1.0E+000,0.0E+000,0.0E+000));
#307=FACE_OUTER_BOUND('',#309,.T.);
#308=FACE_BOUND('',#310,.T.);
#309=EDGE_LOOP('',(#311));
#310=EDGE_LOOP('',(#320));
#311=ORIENTED_EDGE('',*,*,#312,.F.);
#312=EDGE_CURVE('',#318,#318,#313,.T.);
#313=CIRCLE('',#314,1.34999730000001E+000);
#314=AXIS2_PLACEMENT_3D('',#315,#316,#317);
#315=CARTESIAN_POINT('',(0.0E+000,0.0E+000,1.70945281003892E+000));
#316=DIRECTION('',(0.0E+000,0.0E+000,1.0E+000));
#317=DIRECTION('',(1.0E+000,0.0E+000,0.0E+000));
#318=VERTEX_POINT('',#319);
#319=CARTESIAN_POINT('',(1.34999730000001E+000,0.0E+000,
   1.70945281003892E+000));
#320=ORIENTED_EDGE('',*,*,#293,.T.);
#321=CYLINDRICAL_SURFACE('',#322,1.34999730000001E+000);
#322=AXIS2_PLACEMENT_3D('',#323,#324,#325);
#323=CARTESIAN_POINT('',(0.0E+000,0.0E+000,5.4E+001));
#324=DIRECTION('',(0.0E+000,0.0E+000,1.0E+000));
#325=DIRECTION('',(1.0E+000,0.0E+000,0.0E+000));
#326=FACE_OUTER_BOUND('',#328,.T.);
#327=FACE_BOUND('',#329,.T.);
#328=EDGE_LOOP('',(#330));
#329=EDGE_LOOP('',(#339));
#330=ORIENTED_EDGE('',*,*,#331,.F.);
#331=EDGE_CURVE('',#337,#337,#332,.T.);
#332=CIRCLE('',#333,5.1999896E+000);
#333=AXIS2_PLACEMENT_3D('',#334,#335,#336);
#334=CARTESIAN_POINT('',(0.0E+000,0.0E+000,0.0E+000));
#335=DIRECTION('',(0.0E+000,0.0E+000,1.0E+000));
#336=DIRECTION('',(1.0E+000,0.0E+000,0.0E+000));
#337=VERTEX_POINT('',#338);
#338=CARTESIAN_POINT('',(5.1999896E+000,0.0E+000,0.0E+000));
#339=ORIENTED_EDGE('',*,*,#312,.T.);
#340=CONICAL_SURFACE('',#341,1.34999730000001E+000,1.15293099262765E+000
   );
#341=AXIS2_PLACEMENT_3D('',#342,#343,#344);
#342=CARTESIAN_POINT('',(0.0E+000,0.0E+000,1.70945281003892E+000));
#343=DIRECTION('',(0.0E+000,0.0E+000,-1.0E+000));
#344=DIRECTION('',(-1.0E+000,0.0E+000,0.0E+000));
#345=FACE_OUTER_BOUND('',#347,.T.);
#346=FACE_BOUND('',#348,.T.);
#347=EDGE_LOOP('',(#349));
#348=EDGE_LOOP('',(#358));
#349=ORIENTED_EDGE('',*,*,#350,.F.);
#350=EDGE_CURVE('',#356,#356,#351,.T.);
#351=CIRCLE('',#352,5.49998900000001E+000);
#352=AXIS2_PLACEMENT_3D('',#353,#354,#355);
#353=CARTESIAN_POINT('',(0.0E+000,0.0E+000,2.99999400000001E-001));
#354=DIRECTION('',(0.0E+000,0.0E+000,1.0E+000));
#355=DIRECTION('',(1.0E+000,0.0E+000,0.0E+000));
#356=VERTEX_POINT('',#357);
#357=CARTESIAN_POINT('',(5.49998900000001E+000,0.0E+000,
   2.99999400000001E-001));
#358=ORIENTED_EDGE('',*,*,#331,.T.);
#359=TOROIDAL_SURFACE('',#360,5.19998960000001E+000,
   2.99999399999998E-001);
#360=AXIS2_PLACEMENT_3D('',#361,#362,#363);
#361=CARTESIAN_POINT('',(0.0E+000,0.0E+000,2.99999400000001E-001));
#362=DIRECTION('',(0.0E+000,0.0E+000,1.0E+000));
#363=DIRECTION('',(1.0E+000,0.0E+000,0.0E+000));
#364=FACE_OUTER_BOUND('',#366,.T.);
#365=FACE_BOUND('',#367,.T.);
#366=EDGE_LOOP('',(#368));
#367=EDGE_LOOP('',(#377));
#368=ORIENTED_EDGE('',*,*,#369,.F.);
#369=EDGE_CURVE('',#375,#375,#370,.T.);
#370=CIRCLE('',#371,4.49999100000001E+000);
#371=AXIS2_PLACEMENT_3D('',#372,#373,#374);
#372=CARTESIAN_POINT('',(0.0E+000,0.0E+000,1.29999740000001E+000));
#373=DIRECTION('',(0.0E+000,0.0E+000,1.0E+000));
#374=DIRECTION('',(1.0E+000,0.0E+000,0.0E+000));
#375=VERTEX_POINT('',#376);
#376=CARTESIAN_POINT('',(4.49999100000001E+000,0.0E+000,
   1.29999740000001E+000));
#377=ORIENTED_EDGE('',*,*,#350,.T.);
#378=CONICAL_SURFACE('',#379,5.49998900000001E+000,7.85398163397446E-001
   );
#379=AXIS2_PLACEMENT_3D('',#380,#381,#382);
#380=CARTESIAN_POINT('',(0.0E+000,0.0E+000,2.99999400000001E-001));
#381=DIRECTION('',(0.0E+000,0.0E+000,-1.0E+000));
#382=DIRECTION('',(-1.0E+000,0.0E+000,0.0E+000));
#383=FACE_OUTER_BOUND('',#385,.T.);
#384=FACE_BOUND('',#386,.T.);
#385=EDGE_LOOP('',(#387));
#386=EDGE_LOOP('',(#396));
#387=ORIENTED_EDGE('',*,*,#388,.F.);
#388=EDGE_CURVE('',#394,#394,#389,.T.);
#389=CIRCLE('',#390,4.49999100000001E+000);
#390=AXIS2_PLACEMENT_3D('',#391,#392,#393);
#391=CARTESIAN_POINT('',(0.0E+000,0.0E+000,1.02499795E+001));
#392=DIRECTION('',(0.0E+000,0.0E+000,1.0E+000));
#393=DIRECTION('',(1.0E+000,0.0E+000,0.0E+000));
#394=VERTEX_POINT('',#395);
#395=CARTESIAN_POINT('',(4.49999100000001E+000,0.0E+000,1.02499795E+001)
   );
#396=ORIENTED_EDGE('',*,*,#369,.T.);
#397=CYLINDRICAL_SURFACE('',#398,4.49999100000001E+000);
#398=AXIS2_PLACEMENT_3D('',#399,#400,#401);
#399=CARTESIAN_POINT('',(0.0E+000,0.0E+000,5.4E+001));
#400=DIRECTION('',(0.0E+000,0.0E+000,1.0E+000));
#401=DIRECTION('',(1.0E+000,0.0E+000,0.0E+000));
#402=FACE_OUTER_BOUND('',#404,.T.);
#403=FACE_BOUND('',#405,.T.);
#404=EDGE_LOOP('',(#406));
#405=EDGE_LOOP('',(#407));
#406=ORIENTED_EDGE('',*,*,#123,.F.);
#407=ORIENTED_EDGE('',*,*,#388,.T.);
#408=TOROIDAL_SURFACE('',#409,4.24999150000001E+000,
   2.49999499999999E-001);
#409=AXIS2_PLACEMENT_3D('',#410,#411,#412);
#410=CARTESIAN_POINT('',(0.0E+000,0.0E+000,1.02499795E+001));
#411=DIRECTION('',(0.0E+000,0.0E+000,1.0E+000));
#412=DIRECTION('',(1.0E+000,0.0E+000,0.0E+000));
#413=AXIS2_PLACEMENT_3D('',#414,#415,#416);
#414=CARTESIAN_POINT('',(0.0E+000,0.0E+000,0.0E+000));
#415=DIRECTION('',(0.0E+000,0.0E+000,1.0E+003));
#416=DIRECTION('',(1.0E+003,0.0E+000,0.0E+000));
#417=(GEOMETRIC_REPRESENTATION_CONTEXT(3) 
   GLOBAL_UNCERTAINTY_ASSIGNED_CONTEXT((#418)) 
   GLOBAL_UNIT_ASSIGNED_CONTEXT((#420,#421,#422)) REPRESENTATION_CONTEXT
   ('',''));
#418=UNCERTAINTY_MEASURE_WITH_UNIT(LENGTH_MEASURE(1.0E-005),#420,'','');
#419=DIMENSIONAL_EXPONENTS(1.0E+000,0.0E+000,0.0E+000,0.0E+000,0.0E+000,
   0.0E+000,0.0E+000);
#420=(LENGTH_UNIT() NAMED_UNIT(*) SI_UNIT(.MILLI.,.METRE.));
#421=(NAMED_UNIT(*) PLANE_ANGLE_UNIT() SI_UNIT($,.RADIAN.));
#422=(NAMED_UNIT(*) SI_UNIT($,.STERADIAN.) SOLID_ANGLE_UNIT());
ENDSEC;
END-ISO-10303-21;
                
                  
               
                   
                    
     
                
