ISO-10303-21;
HEADER;
FILE_DESCRIPTION((''),'2;1');
FILE_NAME('','2001-09-27T14:49:19+00:00',('Andreas Norl\X\E9n'),(
   'PIAB AB'),'','SolidEdge','');
FILE_SCHEMA(('CONFIG_CONTROL_DESIGN'));
ENDSEC;
/* ISO 10303-21 file written by STEP Caselib, ProSTEP GmbH, Germany */
DATA;
#1=ADVANCED_BREP_SHAPE_REPRESENTATION('',(#91,#393),#397);
#2=APPLICATION_CONTEXT(
   'CONFIGURATION CONTROLLED 3D DESIGNS OF MECHANICAL PARTS AND 
ASSEMBLIES');
#3=APPLICATION_PROTOCOL_DEFINITION('INTERNATIONAL STANDARD',
   'config_control_design',1994,#2);
#4=MECHANICAL_CONTEXT('MECHANICAL_CONTEXT_NAME',#2,'mechanical');
#5=PRODUCT('','','PRODUCT_DESCRIPTION',(#4));
#6=PRODUCT_RELATED_PRODUCT_CATEGORY('detail',
   'PRODUCT_RELATED_PRODUCT_CATEGORY_DESCRIPTION',(#5));
#7=PERSON_AND_ORGANIZATION_ROLE('design_owner');
#8=CC_DESIGN_PERSON_AND_ORGANIZATION_ASSIGNMENT(#11,#7,(#5));
#9=PERSON('ID_25','PERSON_LAST_NAME','PERSON_FIRST_NAME',$,$,$);
#10=ORGANIZATION('ORGANIZATION_ID','ORGANIZATION_NAME',
   'ORGANIZATION_DESCRIPTION');
#11=PERSON_AND_ORGANIZATION(#9,#10);
#12=PRODUCT_DEFINITION_FORMATION_WITH_SPECIFIED_SOURCE(
   'PRODUCT_DEFINITION_FORMATION_ID',
   'PRODUCT_DEFINITION_FORMATION_DESCRIPTION',#5,.NOT_KNOWN.);
#13=PERSON_AND_ORGANIZATION_ROLE('creator');
#14=CC_DESIGN_PERSON_AND_ORGANIZATION_ASSIGNMENT(#17,#13,(#12));
#15=PERSON('ID_26','PERSON_LAST_NAME','PERSON_FIRST_NAME',$,$,$);
#16=ORGANIZATION('ORGANIZATION_ID','ORGANIZATION_NAME',
   'ORGANIZATION_DESCRIPTION');
#17=PERSON_AND_ORGANIZATION(#15,#16);
#18=PERSON_AND_ORGANIZATION_ROLE('part_supplier');
#19=CC_DESIGN_PERSON_AND_ORGANIZATION_ASSIGNMENT(#22,#18,(#12));
#20=PERSON('ID_27','PERSON_LAST_NAME','PERSON_FIRST_NAME',$,$,$);
#21=ORGANIZATION('ORGANIZATION_ID','ORGANIZATION_NAME',
   'ORGANIZATION_DESCRIPTION');
#22=PERSON_AND_ORGANIZATION(#20,#21);
#23=APPROVAL_STATUS('approved');
#24=APPROVAL(#23,'APPROVAL_LEVEL');
#25=CC_DESIGN_APPROVAL(#24,(#12));
#26=APPROVAL_ROLE('APPROVAL_ROLE');
#27=APPROVAL_PERSON_ORGANIZATION(#30,#24,#26);
#28=PERSON('ID_28','PERSON_LAST_NAME','PERSON_FIRST_NAME',$,$,$);
#29=ORGANIZATION('ORGANIZATION_ID','ORGANIZATION_NAME',
   'ORGANIZATION_DESCRIPTION');
#30=PERSON_AND_ORGANIZATION(#28,#29);
#31=APPROVAL_DATE_TIME(#35,#24);
#32=CALENDAR_DATE(1997,1,1);
#33=COORDINATED_UNIVERSAL_TIME_OFFSET(0,0,.AHEAD.);
#34=LOCAL_TIME(0,0,0.0E+000,#33);
#35=DATE_AND_TIME(#32,#34);
#36=SECURITY_CLASSIFICATION_LEVEL('classified');
#37=SECURITY_CLASSIFICATION('SECURITY_CLASSIFICATION_NAME',
   'SECURITY_CLASSIFICATION_PURPOSE',#36);
#38=CC_DESIGN_SECURITY_CLASSIFICATION(#37,(#12));
#39=APPROVAL_STATUS('approved');
#40=APPROVAL(#39,'APPROVAL_LEVEL');
#41=CC_DESIGN_APPROVAL(#40,(#37));
#42=APPROVAL_ROLE('APPROVAL_ROLE');
#43=APPROVAL_PERSON_ORGANIZATION(#46,#40,#42);
#44=PERSON('ID_29','PERSON_LAST_NAME','PERSON_FIRST_NAME',$,$,$);
#45=ORGANIZATION('ORGANIZATION_ID','ORGANIZATION_NAME',
   'ORGANIZATION_DESCRIPTION');
#46=PERSON_AND_ORGANIZATION(#44,#45);
#47=APPROVAL_DATE_TIME(#51,#40);
#48=CALENDAR_DATE(1997,1,1);
#49=COORDINATED_UNIVERSAL_TIME_OFFSET(0,0,.AHEAD.);
#50=LOCAL_TIME(0,0,0.0E+000,#49);
#51=DATE_AND_TIME(#48,#50);
#52=PERSON_AND_ORGANIZATION_ROLE('classification_officer');
#53=CC_DESIGN_PERSON_AND_ORGANIZATION_ASSIGNMENT(#56,#52,(#37));
#54=PERSON('ID_30','PERSON_LAST_NAME','PERSON_FIRST_NAME',$,$,$);
#55=ORGANIZATION('ORGANIZATION_ID','ORGANIZATION_NAME',
   'ORGANIZATION_DESCRIPTION');
#56=PERSON_AND_ORGANIZATION(#54,#55);
#57=DATE_TIME_ROLE('classification_date');
#58=CC_DESIGN_DATE_AND_TIME_ASSIGNMENT(#62,#57,(#37));
#59=CALENDAR_DATE(1997,1,1);
#60=COORDINATED_UNIVERSAL_TIME_OFFSET(0,0,.AHEAD.);
#61=LOCAL_TIME(0,0,0.0E+000,#60);
#62=DATE_AND_TIME(#59,#61);
#63=DESIGN_CONTEXT('DESIGN_CONTEXT_NAME',#2,'design');
#64=PRODUCT_DEFINITION('PRODUCT_DEFINITION_ID',
   'PRODUCT_DEFINITION_DESCRIPTION',#12,#63);
#65=PERSON_AND_ORGANIZATION_ROLE('creator');
#66=CC_DESIGN_PERSON_AND_ORGANIZATION_ASSIGNMENT(#69,#65,(#64));
#67=PERSON('ID_31','PERSON_LAST_NAME','PERSON_FIRST_NAME',$,$,$);
#68=ORGANIZATION('ORGANIZATION_ID','ORGANIZATION_NAME',
   'ORGANIZATION_DESCRIPTION');
#69=PERSON_AND_ORGANIZATION(#67,#68);
#70=DATE_TIME_ROLE('creation_date');
#71=CC_DESIGN_DATE_AND_TIME_ASSIGNMENT(#75,#70,(#64));
#72=CALENDAR_DATE(1997,1,1);
#73=COORDINATED_UNIVERSAL_TIME_OFFSET(0,0,.AHEAD.);
#74=LOCAL_TIME(0,0,0.0E+000,#73);
#75=DATE_AND_TIME(#72,#74);
#76=APPROVAL_STATUS('approved');
#77=APPROVAL(#76,'APPROVAL_LEVEL');
#78=CC_DESIGN_APPROVAL(#77,(#64));
#79=APPROVAL_ROLE('APPROVAL_ROLE');
#80=APPROVAL_PERSON_ORGANIZATION(#83,#77,#79);
#81=PERSON('ID_32','PERSON_LAST_NAME','PERSON_FIRST_NAME',$,$,$);
#82=ORGANIZATION('ORGANIZATION_ID','ORGANIZATION_NAME',
   'ORGANIZATION_DESCRIPTION');
#83=PERSON_AND_ORGANIZATION(#81,#82);
#84=APPROVAL_DATE_TIME(#88,#77);
#85=CALENDAR_DATE(1997,1,1);
#86=COORDINATED_UNIVERSAL_TIME_OFFSET(0,0,.AHEAD.);
#87=LOCAL_TIME(0,0,0.0E+000,#86);
#88=DATE_AND_TIME(#85,#87);
#89=PRODUCT_DEFINITION_SHAPE('PRODUCT_DEFINITION_SHAPE_NAME',
   'PRODUCT_DEFINITION_SHAPE_DESCRIPTION',#64);
#90=SHAPE_DEFINITION_REPRESENTATION(#89,#1);
#91=MANIFOLD_SOLID_BREP('',#92);
#92=CLOSED_SHELL('',(#93,#94,#95,#96,#97,#98,#99,#100,#101,#102,#103,
   #104,#105,#106,#107));
#93=ADVANCED_FACE('',(#108,#109),#130,.T.);
#94=ADVANCED_FACE('',(#135,#136),#149,.T.);
#95=ADVANCED_FACE('',(#154,#155),#168,.T.);
#96=ADVANCED_FACE('',(#173,#174),#187,.T.);
#97=ADVANCED_FACE('',(#192,#193),#206,.T.);
#98=ADVANCED_FACE('',(#211,#212),#225,.T.);
#99=ADVANCED_FACE('',(#230,#231),#244,.T.);
#100=ADVANCED_FACE('',(#249,#250),#263,.F.);
#101=ADVANCED_FACE('',(#268,#269),#282,.F.);
#102=ADVANCED_FACE('',(#287,#288),#301,.F.);
#103=ADVANCED_FACE('',(#306,#307),#320,.T.);
#104=ADVANCED_FACE('',(#325,#326),#339,.T.);
#105=ADVANCED_FACE('',(#344,#345),#358,.T.);
#106=ADVANCED_FACE('',(#363,#364),#377,.T.);
#107=ADVANCED_FACE('',(#382,#383),#388,.T.);
#108=FACE_OUTER_BOUND('',#110,.T.);
#109=FACE_BOUND('',#111,.T.);
#110=EDGE_LOOP('',(#112));
#111=EDGE_LOOP('',(#121));
#112=ORIENTED_EDGE('',*,*,#113,.T.);
#113=EDGE_CURVE('',#119,#119,#114,.T.);
#114=CIRCLE('',#115,4.04144380142363E+000);
#115=AXIS2_PLACEMENT_3D('',#116,#117,#118);
#116=CARTESIAN_POINT('',(0.0E+000,0.0E+000,9.99998000000001E+000));
#117=DIRECTION('',(0.0E+000,0.0E+000,1.0E+000));
#118=DIRECTION('',(1.0E+000,0.0E+000,0.0E+000));
#119=VERTEX_POINT('',#120);
#120=CARTESIAN_POINT('',(4.04144380142363E+000,0.0E+000,
   9.99998000000001E+000));
#121=ORIENTED_EDGE('',*,*,#122,.F.);
#122=EDGE_CURVE('',#128,#128,#123,.T.);
#123=CIRCLE('',#124,3.499993E+000);
#124=AXIS2_PLACEMENT_3D('',#125,#126,#127);
#125=CARTESIAN_POINT('',(0.0E+000,0.0E+000,9.99998000000001E+000));
#126=DIRECTION('',(0.0E+000,0.0E+000,1.0E+000));
#127=DIRECTION('',(1.0E+000,0.0E+000,0.0E+000));
#128=VERTEX_POINT('',#129);
#129=CARTESIAN_POINT('',(3.499993E+000,0.0E+000,9.99998000000001E+000));
#130=PLANE('',#131);
#131=AXIS2_PLACEMENT_3D('',#132,#133,#134);
#132=CARTESIAN_POINT('',(3.499993E+000,0.0E+000,9.99998000000001E+000));
#133=DIRECTION('',(0.0E+000,0.0E+000,1.0E+000));
#134=DIRECTION('',(1.0E+000,0.0E+000,0.0E+000));
#135=FACE_OUTER_BOUND('',#137,.T.);
#136=FACE_BOUND('',#138,.T.);
#137=EDGE_LOOP('',(#139));
#138=EDGE_LOOP('',(#148));
#139=ORIENTED_EDGE('',*,*,#140,.T.);
#140=EDGE_CURVE('',#146,#146,#141,.T.);
#141=CIRCLE('',#142,4.04144380142363E+000);
#142=AXIS2_PLACEMENT_3D('',#143,#144,#145);
#143=CARTESIAN_POINT('',(0.0E+000,0.0E+000,6.99998600000003E+000));
#144=DIRECTION('',(0.0E+000,0.0E+000,1.0E+000));
#145=DIRECTION('',(1.0E+000,0.0E+000,0.0E+000));
#146=VERTEX_POINT('',#147);
#147=CARTESIAN_POINT('',(4.04144380142363E+000,0.0E+000,
   6.99998600000003E+000));
#148=ORIENTED_EDGE('',*,*,#113,.F.);
#149=CYLINDRICAL_SURFACE('',#150,4.04144380142363E+000);
#150=AXIS2_PLACEMENT_3D('',#151,#152,#153);
#151=CARTESIAN_POINT('',(0.0E+000,0.0E+000,5.4E+001));
#152=DIRECTION('',(0.0E+000,0.0E+000,1.0E+000));
#153=DIRECTION('',(1.0E+000,0.0E+000,0.0E+000));
#154=FACE_OUTER_BOUND('',#156,.T.);
#155=FACE_BOUND('',#157,.T.);
#156=EDGE_LOOP('',(#158));
#157=EDGE_LOOP('',(#167));
#158=ORIENTED_EDGE('',*,*,#159,.T.);
#159=EDGE_CURVE('',#165,#165,#160,.T.);
#160=CIRCLE('',#161,2.99999400000025E+000);
#161=AXIS2_PLACEMENT_3D('',#162,#163,#164);
#162=CARTESIAN_POINT('',(0.0E+000,0.0E+000,6.49998700000001E+000));
#163=DIRECTION('',(0.0E+000,0.0E+000,1.0E+000));
#164=DIRECTION('',(1.0E+000,0.0E+000,0.0E+000));
#165=VERTEX_POINT('',#166);
#166=CARTESIAN_POINT('',(2.99999400000025E+000,0.0E+000,
   6.49998700000001E+000));
#167=ORIENTED_EDGE('',*,*,#140,.F.);
#168=TOROIDAL_SURFACE('',#169,3.03108285106772E+000,1.2702447751074E+000
   );
#169=AXIS2_PLACEMENT_3D('',#170,#171,#172);
#170=CARTESIAN_POINT('',(0.0E+000,0.0E+000,7.76985127307291E+000));
#171=DIRECTION('',(0.0E+000,0.0E+000,1.0E+000));
#172=DIRECTION('',(1.0E+000,0.0E+000,0.0E+000));
#173=FACE_OUTER_BOUND('',#175,.T.);
#174=FACE_BOUND('',#176,.T.);
#175=EDGE_LOOP('',(#177));
#176=EDGE_LOOP('',(#186));
#177=ORIENTED_EDGE('',*,*,#178,.T.);
#178=EDGE_CURVE('',#184,#184,#179,.T.);
#179=CIRCLE('',#180,2.499995E+000);
#180=AXIS2_PLACEMENT_3D('',#181,#182,#183);
#181=CARTESIAN_POINT('',(0.0E+000,0.0E+000,6.49998700000001E+000));
#182=DIRECTION('',(0.0E+000,0.0E+000,1.0E+000));
#183=DIRECTION('',(1.0E+000,0.0E+000,0.0E+000));
#184=VERTEX_POINT('',#185);
#185=CARTESIAN_POINT('',(2.499995E+000,0.0E+000,6.49998700000001E+000));
#186=ORIENTED_EDGE('',*,*,#159,.F.);
#187=PLANE('',#188);
#188=AXIS2_PLACEMENT_3D('',#189,#190,#191);
#189=CARTESIAN_POINT('',(2.99999400000025E+000,0.0E+000,
   6.49998700000001E+000));
#190=DIRECTION('',(0.0E+000,0.0E+000,-1.0E+000));
#191=DIRECTION('',(-1.0E+000,0.0E+000,0.0E+000));
#192=FACE_OUTER_BOUND('',#194,.T.);
#193=FACE_BOUND('',#195,.T.);
#194=EDGE_LOOP('',(#196));
#195=EDGE_LOOP('',(#205));
#196=ORIENTED_EDGE('',*,*,#197,.T.);
#197=EDGE_CURVE('',#203,#203,#198,.T.);
#198=CIRCLE('',#199,2.49999500000001E+000);
#199=AXIS2_PLACEMENT_3D('',#200,#201,#202);
#200=CARTESIAN_POINT('',(0.0E+000,0.0E+000,9.99998000000002E-001));
#201=DIRECTION('',(0.0E+000,0.0E+000,1.0E+000));
#202=DIRECTION('',(1.0E+000,0.0E+000,0.0E+000));
#203=VERTEX_POINT('',#204);
#204=CARTESIAN_POINT('',(2.49999500000001E+000,0.0E+000,
   9.99998000000002E-001));
#205=ORIENTED_EDGE('',*,*,#178,.F.);
#206=CYLINDRICAL_SURFACE('',#207,2.499995E+000);
#207=AXIS2_PLACEMENT_3D('',#208,#209,#210);
#208=CARTESIAN_POINT('',(0.0E+000,0.0E+000,5.4E+001));
#209=DIRECTION('',(0.0E+000,0.0E+000,1.0E+000));
#210=DIRECTION('',(1.0E+000,0.0E+000,0.0E+000));
#211=FACE_OUTER_BOUND('',#213,.T.);
#212=FACE_BOUND('',#214,.T.);
#213=EDGE_LOOP('',(#215));
#214=EDGE_LOOP('',(#224));
#215=ORIENTED_EDGE('',*,*,#216,.T.);
#216=EDGE_CURVE('',#222,#222,#217,.T.);
#217=CIRCLE('',#218,3.499993E+000);
#218=AXIS2_PLACEMENT_3D('',#219,#220,#221);
#219=CARTESIAN_POINT('',(0.0E+000,0.0E+000,3.99999199999994E-001));
#220=DIRECTION('',(0.0E+000,0.0E+000,1.0E+000));
#221=DIRECTION('',(1.0E+000,0.0E+000,0.0E+000));
#222=VERTEX_POINT('',#223);
#223=CARTESIAN_POINT('',(3.499993E+000,0.0E+000,3.99999199999994E-001));
#224=ORIENTED_EDGE('',*,*,#197,.F.);
#225=CONICAL_SURFACE('',#226,2.49999500000001E+000,1.0303768265243E+000)
   ;
#226=AXIS2_PLACEMENT_3D('',#227,#228,#229);
#227=CARTESIAN_POINT('',(0.0E+000,0.0E+000,9.99998000000002E-001));
#228=DIRECTION('',(0.0E+000,0.0E+000,-1.0E+000));
#229=DIRECTION('',(-1.0E+000,0.0E+000,0.0E+000));
#230=FACE_OUTER_BOUND('',#232,.T.);
#231=FACE_BOUND('',#233,.T.);
#232=EDGE_LOOP('',(#234));
#233=EDGE_LOOP('',(#243));
#234=ORIENTED_EDGE('',*,*,#235,.T.);
#235=EDGE_CURVE('',#241,#241,#236,.T.);
#236=CIRCLE('',#237,3.0999938E+000);
#237=AXIS2_PLACEMENT_3D('',#238,#239,#240);
#238=CARTESIAN_POINT('',(0.0E+000,0.0E+000,-6.93889390390723E-015));
#239=DIRECTION('',(0.0E+000,0.0E+000,1.0E+000));
#240=DIRECTION('',(1.0E+000,0.0E+000,0.0E+000));
#241=VERTEX_POINT('',#242);
#242=CARTESIAN_POINT('',(3.0999938E+000,0.0E+000,-6.93889390390723E-015)
   );
#243=ORIENTED_EDGE('',*,*,#216,.F.);
#244=TOROIDAL_SURFACE('',#245,3.0999938E+000,3.99999199999998E-001);
#245=AXIS2_PLACEMENT_3D('',#246,#247,#248);
#246=CARTESIAN_POINT('',(0.0E+000,0.0E+000,3.99999199999994E-001));
#247=DIRECTION('',(0.0E+000,0.0E+000,1.0E+000));
#248=DIRECTION('',(1.0E+000,0.0E+000,0.0E+000));
#249=FACE_OUTER_BOUND('',#251,.T.);
#250=FACE_BOUND('',#252,.T.);
#251=EDGE_LOOP('',(#253));
#252=EDGE_LOOP('',(#262));
#253=ORIENTED_EDGE('',*,*,#254,.T.);
#254=EDGE_CURVE('',#260,#260,#255,.T.);
#255=CIRCLE('',#256,7.49998499999995E-001);
#256=AXIS2_PLACEMENT_3D('',#257,#258,#259);
#257=CARTESIAN_POINT('',(0.0E+000,0.0E+000,7.02282087059629E-001));
#258=DIRECTION('',(0.0E+000,0.0E+000,1.0E+000));
#259=DIRECTION('',(1.0E+000,0.0E+000,0.0E+000));
#260=VERTEX_POINT('',#261);
#261=CARTESIAN_POINT('',(7.49998499999995E-001,0.0E+000,
   7.02282087059629E-001));
#262=ORIENTED_EDGE('',*,*,#235,.F.);
#263=CONICAL_SURFACE('',#264,3.0999938E+000,1.2804003841219E+000);
#264=AXIS2_PLACEMENT_3D('',#265,#266,#267);
#265=CARTESIAN_POINT('',(0.0E+000,0.0E+000,-6.93889390390723E-015));
#266=DIRECTION('',(0.0E+000,0.0E+000,-1.0E+000));
#267=DIRECTION('',(-1.0E+000,0.0E+000,0.0E+000));
#268=FACE_OUTER_BOUND('',#270,.T.);
#269=FACE_BOUND('',#271,.T.);
#270=EDGE_LOOP('',(#272));
#271=EDGE_LOOP('',(#281));
#272=ORIENTED_EDGE('',*,*,#273,.T.);
#273=EDGE_CURVE('',#279,#279,#274,.T.);
#274=CIRCLE('',#275,7.49998500000005E-001);
#275=AXIS2_PLACEMENT_3D('',#276,#277,#278);
#276=CARTESIAN_POINT('',(0.0E+000,0.0E+000,1.37999724E+001));
#277=DIRECTION('',(0.0E+000,0.0E+000,1.0E+000));
#278=DIRECTION('',(1.0E+000,0.0E+000,0.0E+000));
#279=VERTEX_POINT('',#280);
#280=CARTESIAN_POINT('',(7.49998500000005E-001,0.0E+000,1.37999724E+001)
   );
#281=ORIENTED_EDGE('',*,*,#254,.F.);
#282=CYLINDRICAL_SURFACE('',#283,7.499985E-001);
#283=AXIS2_PLACEMENT_3D('',#284,#285,#286);
#284=CARTESIAN_POINT('',(0.0E+000,0.0E+000,5.4E+001));
#285=DIRECTION('',(0.0E+000,0.0E+000,1.0E+000));
#286=DIRECTION('',(1.0E+000,0.0E+000,0.0E+000));
#287=FACE_OUTER_BOUND('',#289,.T.);
#288=FACE_BOUND('',#290,.T.);
#289=EDGE_LOOP('',(#291));
#290=EDGE_LOOP('',(#300));
#291=ORIENTED_EDGE('',*,*,#292,.T.);
#292=EDGE_CURVE('',#298,#298,#293,.T.);
#293=CIRCLE('',#294,9.49998100000009E-001);
#294=AXIS2_PLACEMENT_3D('',#295,#296,#297);
#295=CARTESIAN_POINT('',(0.0E+000,0.0E+000,1.3999972E+001));
#296=DIRECTION('',(0.0E+000,0.0E+000,1.0E+000));
#297=DIRECTION('',(1.0E+000,0.0E+000,0.0E+000));
#298=VERTEX_POINT('',#299);
#299=CARTESIAN_POINT('',(9.49998100000009E-001,0.0E+000,1.3999972E+001))
   ;
#300=ORIENTED_EDGE('',*,*,#273,.F.);
#301=CONICAL_SURFACE('',#302,7.49998500000005E-001,7.85398163397457E-001
   );
#302=AXIS2_PLACEMENT_3D('',#303,#304,#305);
#303=CARTESIAN_POINT('',(0.0E+000,0.0E+000,1.37999724E+001));
#304=DIRECTION('',(0.0E+000,0.0E+000,1.0E+000));
#305=DIRECTION('',(1.0E+000,0.0E+000,0.0E+000));
#306=FACE_OUTER_BOUND('',#308,.T.);
#307=FACE_BOUND('',#309,.T.);
#308=EDGE_LOOP('',(#310));
#309=EDGE_LOOP('',(#319));
#310=ORIENTED_EDGE('',*,*,#311,.T.);
#311=EDGE_CURVE('',#317,#317,#312,.T.);
#312=CIRCLE('',#313,1.999996E+000);
#313=AXIS2_PLACEMENT_3D('',#314,#315,#316);
#314=CARTESIAN_POINT('',(0.0E+000,0.0E+000,1.3999972E+001));
#315=DIRECTION('',(0.0E+000,0.0E+000,1.0E+000));
#316=DIRECTION('',(1.0E+000,0.0E+000,0.0E+000));
#317=VERTEX_POINT('',#318);
#318=CARTESIAN_POINT('',(1.999996E+000,0.0E+000,1.3999972E+001));
#319=ORIENTED_EDGE('',*,*,#292,.F.);
#320=PLANE('',#321);
#321=AXIS2_PLACEMENT_3D('',#322,#323,#324);
#322=CARTESIAN_POINT('',(9.49998100000009E-001,0.0E+000,1.3999972E+001))
   ;
#323=DIRECTION('',(0.0E+000,0.0E+000,1.0E+000));
#324=DIRECTION('',(1.0E+000,0.0E+000,0.0E+000));
#325=FACE_OUTER_BOUND('',#327,.T.);
#326=FACE_BOUND('',#328,.T.);
#327=EDGE_LOOP('',(#329));
#328=EDGE_LOOP('',(#338));
#329=ORIENTED_EDGE('',*,*,#330,.T.);
#330=EDGE_CURVE('',#336,#336,#331,.T.);
#331=CIRCLE('',#332,2.499995E+000);
#332=AXIS2_PLACEMENT_3D('',#333,#334,#335);
#333=CARTESIAN_POINT('',(0.0E+000,0.0E+000,1.3499973E+001));
#334=DIRECTION('',(0.0E+000,0.0E+000,1.0E+000));
#335=DIRECTION('',(1.0E+000,0.0E+000,0.0E+000));
#336=VERTEX_POINT('',#337);
#337=CARTESIAN_POINT('',(2.499995E+000,0.0E+000,1.3499973E+001));
#338=ORIENTED_EDGE('',*,*,#311,.F.);
#339=CONICAL_SURFACE('',#340,1.999996E+000,7.85398163397449E-001);
#340=AXIS2_PLACEMENT_3D('',#341,#342,#343);
#341=CARTESIAN_POINT('',(0.0E+000,0.0E+000,1.3999972E+001));
#342=DIRECTION('',(0.0E+000,0.0E+000,-1.0E+000));
#343=DIRECTION('',(-1.0E+000,0.0E+000,0.0E+000));
#344=FACE_OUTER_BOUND('',#346,.T.);
#345=FACE_BOUND('',#347,.T.);
#346=EDGE_LOOP('',(#348));
#347=EDGE_LOOP('',(#357));
#348=ORIENTED_EDGE('',*,*,#349,.T.);
#349=EDGE_CURVE('',#355,#355,#350,.T.);
#350=CIRCLE('',#351,2.499995E+000);
#351=AXIS2_PLACEMENT_3D('',#352,#353,#354);
#352=CARTESIAN_POINT('',(0.0E+000,0.0E+000,1.0499979E+001));
#353=DIRECTION('',(0.0E+000,0.0E+000,1.0E+000));
#354=DIRECTION('',(1.0E+000,0.0E+000,0.0E+000));
#355=VERTEX_POINT('',#356);
#356=CARTESIAN_POINT('',(2.499995E+000,0.0E+000,1.0499979E+001));
#357=ORIENTED_EDGE('',*,*,#330,.F.);
#358=CYLINDRICAL_SURFACE('',#359,2.499995E+000);
#359=AXIS2_PLACEMENT_3D('',#360,#361,#362);
#360=CARTESIAN_POINT('',(0.0E+000,0.0E+000,5.4E+001));
#361=DIRECTION('',(0.0E+000,0.0E+000,1.0E+000));
#362=DIRECTION('',(1.0E+000,0.0E+000,0.0E+000));
#363=FACE_OUTER_BOUND('',#365,.T.);
#364=FACE_BOUND('',#366,.T.);
#365=EDGE_LOOP('',(#367));
#366=EDGE_LOOP('',(#376));
#367=ORIENTED_EDGE('',*,*,#368,.T.);
#368=EDGE_CURVE('',#374,#374,#369,.T.);
#369=CIRCLE('',#370,3.499993E+000);
#370=AXIS2_PLACEMENT_3D('',#371,#372,#373);
#371=CARTESIAN_POINT('',(0.0E+000,0.0E+000,1.0499979E+001));
#372=DIRECTION('',(0.0E+000,0.0E+000,1.0E+000));
#373=DIRECTION('',(1.0E+000,0.0E+000,0.0E+000));
#374=VERTEX_POINT('',#375);
#375=CARTESIAN_POINT('',(3.499993E+000,0.0E+000,1.0499979E+001));
#376=ORIENTED_EDGE('',*,*,#349,.F.);
#377=PLANE('',#378);
#378=AXIS2_PLACEMENT_3D('',#379,#380,#381);
#379=CARTESIAN_POINT('',(2.499995E+000,0.0E+000,1.0499979E+001));
#380=DIRECTION('',(0.0E+000,0.0E+000,1.0E+000));
#381=DIRECTION('',(1.0E+000,0.0E+000,0.0E+000));
#382=FACE_OUTER_BOUND('',#384,.T.);
#383=FACE_BOUND('',#385,.T.);
#384=EDGE_LOOP('',(#386));
#385=EDGE_LOOP('',(#387));
#386=ORIENTED_EDGE('',*,*,#122,.T.);
#387=ORIENTED_EDGE('',*,*,#368,.F.);
#388=CYLINDRICAL_SURFACE('',#389,3.499993E+000);
#389=AXIS2_PLACEMENT_3D('',#390,#391,#392);
#390=CARTESIAN_POINT('',(0.0E+000,0.0E+000,5.4E+001));
#391=DIRECTION('',(0.0E+000,0.0E+000,1.0E+000));
#392=DIRECTION('',(1.0E+000,0.0E+000,0.0E+000));
#393=AXIS2_PLACEMENT_3D('',#394,#395,#396);
#394=CARTESIAN_POINT('',(0.0E+000,0.0E+000,0.0E+000));
#395=DIRECTION('',(0.0E+000,0.0E+000,1.0E+003));
#396=DIRECTION('',(1.0E+003,0.0E+000,0.0E+000));
#397=(GEOMETRIC_REPRESENTATION_CONTEXT(3) 
   GLOBAL_UNCERTAINTY_ASSIGNED_CONTEXT((#398)) 
   GLOBAL_UNIT_ASSIGNED_CONTEXT((#400,#401,#402)) REPRESENTATION_CONTEXT
   ('',''));
#398=UNCERTAINTY_MEASURE_WITH_UNIT(LENGTH_MEASURE(1.0E-005),#400,'','');
#399=DIMENSIONAL_EXPONENTS(1.0E+000,0.0E+000,0.0E+000,0.0E+000,0.0E+000,
   0.0E+000,0.0E+000);
#400=(LENGTH_UNIT() NAMED_UNIT(*) SI_UNIT(.MILLI.,.METRE.));
#401=(NAMED_UNIT(*) PLANE_ANGLE_UNIT() SI_UNIT($,.RADIAN.));
#402=(NAMED_UNIT(*) SI_UNIT($,.STERADIAN.) SOLID_ANGLE_UNIT());
ENDSEC;
END-ISO-10303-21;
                
                  
               
                   
                    
     
                
